Audioslave - Like a Stone
Tabbed by Alan
[email protected]

There are two guitars in the song, one does the main riff and the
chorus clean, and the other does the same but with a tremolo effect.

Main riff

e----------------------------------------------|
B----------------------------------------------|
G----------------------------------------------|
D--8----10--------------13-12-8----10----------|
A----10----8-----12-------------10----8------12|
E------------ 10------11------------------10---| ...etc.

Chorus with a light distorsion and a slight reverb

e-----------| |-----------------------------------|
B-----------| |-----------------------------------|
G-----------| |-----------------------------------|
D-------3---| |-7-----3-----7----7-----3-----7--7-|
A-5--8--3--5| |-5--5--3--5--5----5--5--3--5--5--5-|
E-3--6--1--3| 2x |----3--1--3----------3--1--3-------|

The solo
In this part the effects are a distorsion, wah, whammy(Digitech pitch shifter) and a delay

e|--------------------------------------------------|
B|--------------------------------------------------|
G|-12v-14-15v-17-15-14-12----12v-14/10v-15-17-19-19v|
D|--------------------------------------------------|
A|--------------------------------------------------|
E|--------------------------------------------------|

Repeat this four times
e|-18-18-18-17-17-17-----------------|
B|------------------18-18-18-15-15-15|
G|-----------------------------------|
D|-----------------------------------|
A|-----------------------------------|
E|-----------------------------------|

The outro scale
e-------------------------17-18-17-18-17v|
B-------------------18-20----------------|
G-12-14-15-17-19-20----------------------|
D----------------------------------------|
A----------------------------------------|
E----------------------------------------|

The acoustic bridge the chords are:

D#(6th fret)-A#-F-Gm
D#m-A#-F-Gm

Here enters two acoustics and the bass

D#(6th fret)-A#-F-Gm
D#m-A#-D-D-D-D
Here the two electrics do only two strokes and then the final chorus

Well that's all but I think this is 100% correct but you have to rate it
More tabs are coming.




Ваше мнение



Капча