Song : Like A Stone
Band : Audioslave
Tabbed By : Diamond Jerry ([email protected])
Standard Tuning
------------------------------------------------------------------------------
[Intro & Verse]
e|---------------------------------------------------------------------------|
B|---------------------------------------------------------------------------|
G|---------------------------------------------------------------------------|
D|-------------------------------------13~--12~------------------------------|
A|--13~-10~----15~-----------12~---------------------------------------------|
E|----------------13~----10~--------11~--------------------------------------|
[Chorus]
e|---------------------------------------------------------------------------|
B|---------------------------------------------------------------------------|
G|--------------------------8~---------------8~-------7~--7~-----------------|
D|--5~--8~--3~--5~---(2x)---8~--5~--3~--5~---8~--5~---7~--7~-----------------|
A|--5~--8~--3~--5~----------6~--5~--3~--5~---6~--5~---5~--5~-----------------|
E|--3~--6~--1~--3~--------------3~--1~--3~-------3~--------------------------|
-repeat verse-
[Chorus2]
e|---------------------------------------------------------------------------|
B|---------------------------------------------------------------------------|
G|--------------------------8~---------------8~-------7~--7~--7~--7~---------|
D|--5~--8~--3~--5~---(2x)---8~--5~--3~--5~---8~--5~---7~--7~--7~--7~---------|
A|--5~--8~--3~--5~----------6~--5~--3~--5~---6~--5~---5~--5~--5~--5~---------|
E|--3~--6~--1~--3~--------------3~--1~--3~-------3~--------------------------|
[Solo] Tom Morello is just great with his weird guitar sounds....
e|---------------------------------------------------------------------------|
B|----------------------------------------------------------15~-15~----------|
G|--12~--14~15~----17~--15~14~-12~-----12~-14~------15~-17~------------------|
D|--------------------------------------------15~----------------------------|
A|---------------------------------------------------------------------------|
E|---------------------------------------------------------------------------|
(use pedal....effect)
e|---------------------------------------------------------------------------|
B|---------------------------------------------------------------------------|
G|--15-15-14-----------------------------------------------------------------|
D|-----------15-15--12---(4x)------------------------------------------------|
A|---------------------------------------------------------------------------|
E|-----------------------------3--5--6--8--10--11--13--15---17-18-17-18--17~-|
[Bridge] clean guitar
e|---66666--66666---------66666---66666--------------------------------------|
B|---88888--66666---------88888---77777--------------------------------------|
G|---88888--77777--55555--88888---88888---8-8-8-8-8---55555---00000----------|
D|---88888--88888--77777--88888---88888--1010101010---77777---00000----------|
A|---66666--88888--00000--66666---66666--1010101010---00000---55555----------|
E|----------66666--55555------------------8-8-8-8-8---55555---33333----------|
e|---66666--66666---------66666---66666--------------------------------------|
B|---88888--66666---------88888---77777--------------------------------------|
G|---88888--77777--55555--88888---88888---8-8-8-8-8--------------------------|
D|---88888--88888--77777--88888---88888--1010101010--1212121212121212--------|
A|---66666--88888--00000--66666---66666--1010101010--1212121212121212--------|
E|----------66666--55555------------------8-8-8-8-8--1010101010101010--------|
-repeat chorus2-
------------------------------------------------------------------------------
Any comments or corrections,just mail me to [email protected]/ICQ #115343571




Ваше мнение



Капча