band:Audioslave
album:Audioslave
song:Hypnotize
tuning:E A D G B E
date:December 12, 2002

key:
slow bend up = bu

intro and verse
E-0-----0-----------------------------------------------------
B-0-----0-----------------------------------------------------
G-2bu---4-----------------------------------------------------
D-------------------------------------------------------------
A-------------------------------------------------------------
E-------------------------------------------------------------

chorus 1
E-------------------------------------------------------------
B-10-10-10-10-10-10-10--8-8-8-8-8-8-8-------------------------
G--7--7--7--7--7--7--7--5-5-5-5-5-5-5-------------------------
D--9--9--9--9--9--9--9--7-7-7-7-7-7-7-------------------------
A-------------------------------------------------------------
E-------------------------------------------------------------

chorus 2 and 3
E---------
B---------
G-2-----4-
D-2-----4-
A-0-----2-
E---------




Ваше мнение



Капча