Getaway Car Solo

Tabbed by: the Goat
Email: [email protected]

Tuning: standard

This is a pretty easy solo, it's based on the D-minor pentatonic box fingering pattern:

e|-------------------------------------------------------------------------|
B|-------------------------------------------------------------------------|
G|---------5------------------------5-7br-7-7br-5-4-5p4--------------------|
D|-----5-7---7------5h7p5-------5-7---------------------5---5--------------|
A|-5h7----------5h7-------7-5h7---------------------------7----------------|
E|-------------------------------------------------------------------------|

e|------------------------------------------------------7------------------|
B|-----7br-7-7br---------7br--------------------------5--------------------|
G|---5-7br-7-7br-----5---7br--7br-5-----7br-5-------5----------------------|
D|-7-------------5h7---7------------7p5-------7p5-7------------------------|
A|-------------------------------------------------------------------------|
E|-------------------------------------------------------------------------|

That's all, then back into the chorus. Figure out the rhythm by listening to the song,
not very difficult.




Ваше мнение



Капча