AUDIOSLAVE - EXPLODER
TUNING ( E A D G B E )
INTRO
|-----------------------|
|---7-7-7-7-7-7-7...7---|
|-----------------------|
|-----------------------|
|-----------------------|
|-----------------------|
VERSE
|---------------------------------------|
|---7-7-7-7-7-7...7---5-5-5-5-5-5...5---|
|---------------------------------------|
|---------------------------------------|
|---------------------------------------|
|---------------------------------------| x2
CHORUS
|----------------------------------------------|
|----------------------------------------------|
|---------------------------------------X--X---|
|---4---------------4---------------4---X--X---|
|---------------------------------------X--X---|
|------2--0--2--0------2--0--2--0-------X--X---|
|-----------------------------------------|
|-----------------------------------------|
|-----------------------------------------|
|---4---------------4---------------------|
|-----------------------------------------|
|------2----0--2--0------2--0--2--0---3---| x4
SOLO (WHAMMY)
|-------------------------------------------------------------------|
|---0-7-0-7-0-7-0-7-0-7-0-7-0-7---0-5-0-5-0-5-0-5-0-5-0-5-0-5-0-5---|
|-------------------------------------------------------------------|
|-------------------------------------------------------------------|
|-------------------------------------------------------------------|
|-------------------------------------------------------------------|
|-----------------------------------------------|
|---0-7-0-10---0-7-0-12---0-7-0-14---0-7-0-15---|
|-----------------------------------------------|
|-----------------------------------------------|
|-----------------------------------------------|
|-----------------------------------------------|
|-------------0------0-----------------------|
|---0-5-0-10-----10-----9---5--3--2--0-------|
|---------------------------------------2~---|
|--------------------------------------------|
|--------------------------------------------|
|--------------------------------------------|
END (WHAMMY)
|----------------------------|
|---7---7---7---7---7---7~---|
|---4---4---4---4---4---4~---|
|----------------------------|
|----------------------------|
|----------------------------|




Ваше мнение



Капча