Verse:
e ----------------------------------
B ----------------------------------
G ----------------------------------
D ----------------------------------
A -5h7--5---5----------5h7--5------- Reapeat 4 times for intro
E --------7---7-3-0-----------7-3-0- then reapeat 7 times for Verse

Then...
e -------------------------------
B -------------------------------
G -------------------7---8-------
D -------------------7---8-------
A -5h7--5---5--------5---6-------
E --------7---7-3-0--5---6-------

Chorus:
e ---------------------------
B ---------------------------
G ---------------------------
D ---------------------------
A --5h7-5h7--------------5---
E ----------5-3-0--3-5-7-----

Solo:
Tremelo pick * * *
e --------------------------|--------------------------
B --------------------------|--------------------------
G --------------------------|--------------------------
D --7--9--9--9--9-----------|--7--9--9--9--9-------7/--
A --------------------------|--------------------------
E --------------------------|--------------------------
* * * * * * * * *
e ------------------|-----------------------------------------------
B ------------------|-----------------------------------------------
G --14b-14-14b-14---|--14b-rp-rp-rp-rp--14b-rp-rp-rp-14-14b-14-14b--
D ------------------|-----------------------------------------------
A ------------------|-----------------------------------------------
E ------------------|-----------------------------------------------

Break:
e ----------------------------|
B ----------------------------|
G ----------------------------|
D ----------------------------| x4
A ---9---9--------------------|
E -----7---7------------------|

e --------------------------|
B --------------------------|
G --------------------------|
D --------------------------| x3
A --14----14----------------|
E -----0-----0--------------|

e --------------------------|
B --------------------------|
G ---------------7----------|
D ---------------7----------|
A --7------------5----------|
E -----0----0---------------|

Breakdown Riff:
e -----------------------------------|
B -----------------------------------|
G --9----9---------------------------|
D --9----9---------------------------| X4
A --7----7-------------------------5-|
E -----------5--3--0----3---5---7----|

End Chorus:
Repeat chorus then finish with:
e --------------------------|
B --9-----9----------------|
G --9-----9----------------|
D --9-----9----------------|
A --7-----7----------------|
E --------------------------|




Ваше мнение



Капча