by:josh
band:Audioslave
album:Audioslave
song:Bring Em Back Alive
tuning:E A D G B E
this is an awsome song you should check it out.....
and the album is awsome to....
key:
x = muted string
()= harmonic
intro
E-8-7---7---7---7---7---6-5---5---5---5---5---
B-----5---5---5---5---5-----3---3---3---3---3-
G---------------------------------------------
D---------------------------------------------
A---------------------------------------------
E---------------------------------------------
E-5-3---3---3---3---3---3-2---2---2---2---2---
B-----1---1---1---1---1-----0---0---0---0---0-
G---------------------------------------------
D---------------------------------------------
A---------------------------------------------
E---------------------------------------------
preverse : only played before 1st verse :
just chop on this for a few seconds
E-----------------------------
B-----------------------------
G-----------------------------
D-9-9-9-9-9-9-9-9-9-9-9-9-9-9-
A-7-7-7-7-7-7-7-7-7-7-7-7-7-7-
E-----------------------------
verse
E----------------------
B----------------------
G----------------x-x-7-
D----------------x-x-7-
A----------------x-x-5-
E--0-0-5-3-0-3-0-------
pm . . . . . . .
chorus
E-----------------------
B-----------------------
G-----------------------
D-----------------------
A-------------------7-7-
E-0-0-3-5-3-0-2-3-2-5-5-
solo
sorry no idea what it is
breakdown
E-------------------------------------
B-------------------------------------
G-------------------------------------
D-------------------------------------
A-7-x-7-x-7-x-7-x-7-x-7-x-7-x-7-x-----
E---------------------------------(7)-
order:
intro 2x
preverse
chorus 8x
verse 12x
chorus 8x
verse 12x
chorus 8x
solo
breakdown 8x
chorus 8x




Ваше мнение



Капча