From: [email protected] (Jonathan Byrd)
Subject: TAB: Mister Bojangles (Walker)
Mister Bojangles
By Jerry Jeff Walker
Tablature by Jonathan Byrd, from an arrangement by Chet Atkins)
[INTRO]
C Em/B Am G7
1 2 3 1 2 3 1 2 3 1 2 3
E -----0---0-------0---0-------0---0-------------
B -----1---1-------1---1-------1---1---0---1---3-
G -------0---0-------0---0-------2---2-----------
D ---2-----------0-----------2-------------------
A -3-----------2-----------0---------------0---2-
E -------------------------------------3---------
[VERSE]
C Em/B Am G7
1 2 3 1 2 3 1 2 3 1 2 3
E -0---0-----0-----0-----0------------------------
B ---3-----3-----3-----3-----3-1------------------
G ---------0-----------0-----------2-----------0--
D -----2-----------0-----------2-----------0------
A -3-----------2-----------0----------------------
E -------------------------------------3----------
Fmaj7 G7
1 2 3 1 2 3 1 2 3 1 2 3
E ---------1---5-------3---3---------------------
B ---------1---5-----------3-----------0---1---3-
G -----------------5---------------4-------------
D -------------3---------------3-----------------
A -----3-----------------------------------0---2-
E -1-----------------------3-----------3---------
C Em/B Am G7
1 2 3 1 2 3 1 2 3 1 2 3
E -0---0-----0-----0-----0------------------------
B ---3-----3-----3-----3-----3-1------------------
G ---------0-----------0-----------2-----------0--
D -----2-----------0-----------2-----------0------
A -3-----------2-----------0----------------------
E -------------------------------------3----------
Fmaj7 G7
1 2 3 1 2 3 1 2 3 1 2 3
E ---------1---5-------3---3---------------------
B ---------1---5-----------3-----------0---------
G -----------------5---------------4-------4-----
D -------------3---------------3---------------5-
A -----3-----------------------------------------
E -1-----------------------3---------------------
Fmaj7 Em E
1 2 3 1 2 3 1 2 3 1 2 3
E -------------5-------5-------------------------
B -----------------6-------8-----------5-------3-
G ---------4-------------------9-----------4-----




Ваше мнение



Капча