#----------------------------------PLEASE NOTE---------------------------------#
#This file is the author's own work and represents their interpretation of the #
#song. You may only use this file for private study, scholarship, or research. #
#------------------------------------------------------------------------------##
From: [email protected] (Jonathan Byrd)
Subject: TAB: Mister Bojangles (Walker)
Mister Bojangles
by Jerry Jeff Walker
Tablature by Jonathan Byrd, from an arrangement by Chet Atkins)
[INTRO]
C Em/B Am G7
1 2 3 1 2 3 1 2 3 1 2 3
e -----0---0-------0---0-------0---0-------------
B -----1---1-------1---1-------1---1---0---1---3-
G -------0---0-------0---0-------2---2-----------
D ---2-----------0-----------2-------------------
A -3-----------2-----------0---------------0---2-
E -------------------------------------3---------
[VERSE]
C Em/B Am G7
1 2 3 1 2 3 1 2 3 1 2 3
e -0---0-----0-----0-----0------------------------
B ---3-----3-----3-----3-----3-1------------------
G ---------0-----------0-----------2-----------0--
D -----2-----------0-----------2-----------0------
A -3-----------2-----------0----------------------
E -------------------------------------3----------
Fmaj7 G7
1 2 3 1 2 3 1 2 3 1 2 3
e ---------1---5-------3---3---------------------
B ---------1---5-----------3-----------0---1---3-
G -----------------5---------------4-------------
D -------------3---------------3-----------------
A -----3-----------------------------------0---2-
E -1-----------------------3-----------3---------
C Em/B Am G7
1 2 3 1 2 3 1 2 3 1 2 3
e -0---0-----0-----0-----0------------------------
B ---3-----3-----3-----3-----3-1------------------
G ---------0-----------0-----------2-----------0--
D -----2-----------0-----------2-----------0------
A -3-----------2-----------0----------------------
E -------------------------------------3----------
Fmaj7 G7
1 2 3 1 2 3 1 2 3 1 2 3
e ---------1---5-------3---3---------------------
B ---------1---5-----------3-----------0---------
G -----------------5---------------4-------4-----
D -------------3---------------3---------------5-
A -----3-----------------------------------------
E -1-----------------------3---------------------
Fmaj7 Em E
1 2 3 1 2 3 1 2 3 1 2 3
e -------------5-------5-------------------------
B -----------------6-------8-----------5-------3-
G ---------4-------------------9-----------4-----
D -----7---------------------------9---6---------
A -8-----------8---------------------------------
E -------------------------0---------------------
Am Am/G D7/F#
1 2 3 1 2 3 1 2 3 1 2 3
e ---------------------------------0---0-------0-
B -1-------1-----------1-------------3---3-1-----
G -------2-----------2-----------2---------------
D -----2-----------2-----------0-------0---------
A -0---------------------------------------------
E -------------3-----------2---------------------
G7
1 2 3 1 2 3 1 2 3 1 2 3
e -----------------------------------------------
B -3---------------------------------------------
G ---------0-----------0-----------0-----------0-
D ---------0-------2-----------0-----------0-----
A -----2-------0-----------1-----------2---------
E -3---------------------------------------------
[CHORUS]
Am G7
1 2 3 1 2 3 1 2 3 1 2 3
e -------------5-3-5---5---3-0-------------------
B ---------1-------------------3-----------------
G -----2-----------3---------------0-----0---0---
D ---------------------------------0-----0---0---
A -0-----------0---------------------------0-----
E -------------------------3-----------3-------0-
Am G7
1 2 3 1 2 3 1 2 3 1 2 3
e -------------5-3-5---5---3-0-------------------
B ---------1-------------------3-----------------
G -----2-----------3---------------0-----0---0---
D ---------------------------------0-----0---0---
A -0-----------0---------------------------0---2-
E -------------------------3-----------3---------
Am G7
1 2 3 1 2 3 1 2 3 1 2 3
e -------------5-3-5---7---3-0-------------------
B ---------1-------------------3-------0---1---3-
G -----2---------------------------0-------------
D ---------------------------------0-------------
A -0-----------0---------------------------0---2-
E -------------------------3-----------3---------
C
1 2 3 1 2 3 1 2 3 1 2 3
e -----0---0-------0---0-------0---0-------------
B -----1---1-------1---1-------1---1---0---1---3-
G -------0---0-------0---0-------2---2-----------
D ---2-----------0-----------2-------------------
A -3-----------2-----------0---------------0---2-
E -------------------------------------3---------
[CODA]
1 2 3 1 2 3 1 2 3 1 2 3
e -0---0-----0-----0-------0----------------------
B ---3-----3-----3-----3-------3---1-------3---1--
G ---------0-----------0-------------------4---2--
D -----2-----------0------------------------------
A -3-----------2-----------1-----------0----------
E ------------------------------------------------
1 2 3 1 2 3 1 2 3 1 2 3
e -0-----------0----------------------------------
B -----3-----------3---1---1----------------------
G ---------5---------------0----------------------
D -------------------------2----------------------
A -------------------------3----------------------
E -4-----------3-----------3----------------------
--
jonathan byrd
[email protected]




Ваше мнение



Капча