From: [email protected] (Neev Tapiero - CNED/P94)
: this is part of a 'relatively easy' piece played recorded by Chet
: Atkins, called "La Madrugada" or "The Early Morning Dawn". This is the
: first movement, and tell me if you like it enough to post the other
: three movements. (I don't have any tab software so it'll come slow and
: one at a time unless someone can tell me step-by-step how to get and
: install it)
: timing is 4/4 in C major
: hint: ALL NOTES ARE 1/8 notes - in this section without exception
: La Madrugada, by JR Hubbard, as recorded by C Atkins
: 1
: E--3-------------3--|--3---------1-0---|--------0---------|
: B--1-------------1--|--0---------0-0-3-|--3-----3-1-------|
: G--0-0-0-0-0-0-0-0--|--0-0-0-0-0-0-0-0-|--0-0-0-0-0-0-0-0-|
: D-------------------|------------------|------------------|
: A--3-------------3--|--2---------2-2---|--1-----1-1-------|
: 2
: E----------0---3----|--3-------------3-|--3-----1-0-----3--|
: B--1---1---1---1----|--1-------------1-|--0-----0-0-----0--|
: G--0-0-0-0-0-0-0-0--|--0-0-0-0-0-0-0-0-|--0-0-0-0-0-0-0-0--|
: D------3---3--------|------------------|-------------------|
: A--0-----------0----|------------------|-------------------|
: E-------------------|--3-------------1-|--0-----0-0--------|
: 3
: E--8-------7--------|--5-------7--------|
: B--6-------6--------|--6-------6--------| REPEAT UNTIL END OF
: G--0-0-0-0-0-0-0-0--|--0-0-0-0-0-0------| BAR 1 OF ROW 2
: D--0-------0--------|--0-------0-----0--|
: A-------------------|--------------8----|
: tell me how you like it
: - Neev
From: [email protected] (Neev Tapiero - CNED/P94)
Subject: TAB: C. Atkins classical part II
Ok the last bar to be played after it's second repeat is: (then follows
The next sets of bars)
(h) = half note
(q) = quart. note
All other notes are 1/8 notes
(first bar of row2)
E---------0---3---|-3-------3-----0-|-1---0-----------|-----------------|
B-1---1---1---1---|-1-------0-----0-|-1---1---1-----1-|-1-------1-----1-|
G-0-0-0-0-0-0-0-0-|-0-0-0-0-0-0-0-0-|-0-0-0-0-0-0-0-0-|-0-0-0-0-0-0-0-0-|
D-----3---3-------|-----------------|-----3---0-----3-|-2-------3-----3-|
A-0-----------0---|-3-------2-----2-|-0---------------|-3-------3-----3-|
E-----------------|-----------------|---------3-----3-|-----------------|
E-----------------|-----0-------0---|-----0-------0---|----0----0---0---|
B-1(h)---5(q)-8(q)|-6----6--6----6--|-0----6--6----6--|-8---8--------8--|
G-0(h)------------|--3----3--5----5-|--5----5--4----4-|--7---7--------7-|
D-2(h)------------|---0-------0-----|---0-------0-----|---5---0---------|
A-3(h)------------|-----------------|-----------------|-----------7-----|
E-----------------|-6-------5-------|-3-------3-------|-8---------------|




Ваше мнение



Капча