Freight Train
Arr.: Chet Atkins
Trans: Fr??rikur Ellefsen
This is how I saw CA perform on an austrilian tv show.
He played it on his acoustic gibson.
The year was 1997. He was teaching the narrator how to play it.

E||---------------------|--3---------0---------|----------------------|
B||---------------------|----------------------|--3---------1---------|
G||---------------------|----------------------|----------------------|
D||---------------------|-------2---------2----|-------2---------2----|
A||-----------0----2----|--3-------------------|--3-------------------|
E||------3--------------|------------3---------|------------3---------|

---------------3-------|--1-------------------|--5---------1---------|
-----------------------|----------------------|----------------------|
--4--------------------|----------------------|----------------------|
-------5----------5----|-------2---------2----|-------5---------2----|
-----------------------|----------------------|----------------------|
--3---------3----------|--3---------3---------|--3---------3---------|

--0-------------------|---------------3-------|--0-------------------|
------------3---------|--1--------------------|----------------------|
----------------------|-----------------------|----------------------|
-------2---------2----|-------2----------2----|-------2---------2----|
----------------------|--3--------------------|--3-------------------|
--3---------3---------|------------3----------|------------3---------|

*this part is worth studying - and yes it is accurate!
-----------------------|----------------------|-----------------------|
--5------------6-------|--5-------------------|--1------------3-------|
-----------------------|------------7---------|-----------------------|
-------6----------6----|-------6---------6----|-------3----------3----|
------------7----------|----------------------|-----------------------|
--0--------------------|--0---------0---------|--1---------1----------|

----------------------|--0--------------------|-----------------------|
--1---------1----3----|------------1----------|------------3----------|
----------------------|---------------2-------|--4------------4-------|
-------3---------3----|-------2----------0----|-------5----------5----|
----------------------|--3--------------------|-----------------------|
--1---------1---------|------------3----------|--3---------3----------|

-------------------|------------------||
--1----------------|------------------||
-------------------|------------------||
-------------------|------------------||
--3----------------|------------------||

http://www.guitaren.dk
Fr??rikur Ellefsen




Ваше мнение



Капча