================================================================================
Title : Room With A View
Artist : Atheist
Album : Piece Of Time
Transcribed by : J. Litvak, converted and corrected by : Coypu
================================================================================
Some timings are not exact so listen to the song and you will have no trouble
figuring it out.
SECTION A:
G|------------------------------------------------------------------------
D|------------------------------------------------------------------------
A|*-----------------------------------------------------------------------
E|---5-5-5-5-5-5-5-5--5-5-5--5-5-5-5-5--5-5-5-5-3-3-3-3--8-8-8-8-7-7-7-7--
B|------------------------------------------------------------------------
G|----------------------------------------------------------------------|
D|----------------------------------------------------------------------|
A|----------------------------------------------------------------------|
E|--4-4-4-4-4-4-4-4--4-4--4-4-4-4-4-4--4-4-4-4-4-4-4--4-4-4-4-4-4-4-4---|
B|----------------------------------------------------------------------|
end here (*) the third time repeat *
G|---------------------------------------------------------------------------
D|---------------------------------------------------------------------------
A|---------------------------------------------------------------------------
E|--5-5-5-5-5-5-5-5--5--5-5-5-5-5-5-5--5-5-5-5-3-3-3-3---8--8--8--8-7-7-7-7--
B|---------------------------------------------------------------------------
G|------------------------------------------------------------------------|
D|------------------------------------------------------------------------|
A|-----------------------------------------------------------------------*|
E|--4-4-4-4-4-4-4--4--4-4-4-4-4-4-4-4--2-2-2-2-2-2-2-2--0-0-0-0-0-0-0-0---|
B|------------------------------------------------------------------------|
SECTION B: 2x
G|--------------------------------------------------------|
D|-----------------------------3---2----------------------|
A|*--2---2-2-2-2--2---2-2-2-2-----------1----3---2---0----|
E|--------------------------------------------------------|
B|--------------------------------------------------------|
G|-----------------------------------5-6-7------------3-4-5----
D|----------------------------5-6-7-----------3-4--5-----------
A|--1---1-1-1-1--1---1-1-1-1-----------------------------------
E|-------------------------------------------------------------
B|-------------------------------------------------------------
G|------------------------------------------------------|
D|----------------------------3---2---------------------|
A|--2---2-2-2-2--2---2-2-2-2----------1----3---2---0----|
E|------------------------------------------------------|
B|------------------------------------------------------|

G|------------------------------------------------------|
D|------------------------------------------------------|
A|--1---1-1-1-1--1---1-1-1-1--5------------4-----------*|
E|--------------------------------6---5--------5---4----|
B|------------------------------------------------------|
SECTION C: BOTH GUITARS
G|-------------------------------------------------------------------
D|----------------------------------------------------------13-------
A|--------------------------13/-14--------------13/-14--14/----------
E|-0--0--0--0---0--0--0--0---0------0--0--0--0---0-------0------0--0-
B|-------------------------------------------------------------------
G|-----------------------------------------------------------------|
D|-----------------------------------------------------------------|
A|-------------13----------------------10--10-10-10-10--10---9---8-|
E|-0--0--0--0---0----0--0--0--0--0--0------------------------------|
B|-----------------------------------------------------------------|
G|-------------------------------------------------------------
D|----------------------------------------------------------13-
A|--------------------------13/-14--------------13/-14--14/----
E|-0--0--0--0--0--0--0---0---0------0--0--0--0---0-------0-----
B|-------------------------------------------------------------
G|-----------------------------------------------------------------------|
D|-----------------------------------------------------------------------|
A|-------------------13----------------------10--10-10-10-10--10---9---8-|
E|-0--0--0--0--0--0---0---0--0---0--0--0--0------------------------------|
B|-----------------------------------------------------------------------|
G|-------------------------------------------------------------
D|----------------------------------------------------------13-
A|-------------------------13/--14--------------13/-14--14/----
E|-0--0--0--0--0--0--0--0---0-------0--0--0--0---0-------0-----
B|-------------------------------------------------------------
G|-----------------------------------------------------------------------|
D|-----------------------------------------------------------------------|
A|-------------------13----------------------10--10-10-10-10--10---9---8-|
E|-0--0--0--0--0--0---0---0--0--0--0---0--0------------------------------|
B|-----------------------------------------------------------------------|
G|-------------------------------------------------------------
D|----------------------------------------------------------13-
A|-------------------------13/-14---------------13/-14--14/----
E|-0--0--0--0--0--0--0--0---0-------0--0--0--0---0-------0-----
B|-------------------------------------------------------------
G|------------------------------------------|
D|------------------------------------------|
A|-------------------13---------------------|
E|-0--0--0--0--0--0---0---0--0--0--0--0--0--|
B|------------------------------------------|
BRIDGE: BOTH GUITARS 6X
G|-------------------------------|--------------------------------------------|
D|-------------------------------|--------------------3-------------------3---|
A|-------------------------------|*----------3--2--2------------3--2--2-------|
E|--3--3-3-3-3--3--2--1----0-----|-----0--2---------------0--2----------------|
B|-------------------------------|--------------------------------------------|

G|-----------------------------------------------------------|
D|-----------------------------------10--9--------9----------|
A|----------------10--------8-----9------------8-----8--7---*|
E|----------0--9------0--7-----0------------0--------------8-|
B|-----------------------------------------------------------|
SECTION E: 2X 1:st time 2:nd time
G|------------------------------|---------------|--------9--|
D|------------------------------|---------------|-----------|
A|*-----------------------------|---------------|-7---6-----|
E|---0----------------0---0-----|-----x/-------|-----------|
B|------------------------------|---------------|-----------|
G|---------------------------------------------------------|
D|-----------------------------10--9---------9-------------|
A|--------10---------8------9-------------8------8--7-----*|
E|--0--9-------0--7------0-------------0---------------8---|
B|---------------------------------------------------------|
SECTION F:
G|----------------------------------------------|
D|---------------------------7--8--7--6---------|
A|--0--------0--------0-------------------------|
E|----------------------------------------------|
B|----------------------------------------------|
* Repeat Section A.
SECTION G: GUITAR 2
G|----------------------------------------------|
D|----------------------------------------------|
A|*----------5------------3----------------1---*|
E|---5---------------3-------------1------------|
B|----------------------------------------------|
4x * comes earlier second time
SECTION H: BOTH GUITARS
G|-------------------------------------------------------|
D|-------------------------------------------------------|
A|*------------------------------------------------------|
E|---0-------0-0--0-----0----0-0--0--0--0--0--3--2--1--0-|
B|-------------------------------------------------------|
* Repeat Section F.
G|--------------------------------------------------------|
D|--------------------------------------------------------|
A|--6---6---6---6-6-6----6-----------------------------1--|
E|---------------------------0-0--3--2--1--0--3--2--1-----|
B|--------------------------------------------------------|
G|-------------------------------------------------------|
D|-------------------------------------------------------|
A|----------------------*-Bass fill----------6----6-6--6-|
E|--0----0-0--0----0-0-----------------------------------|
B|-------------------------------------------------------|
Bass fill
G|-------------9--7---8h9-7---7-9p8-|
D|--------8h9-------9-------9-------|
A|-7--8h9---------------------------|
E|----------------------------------|
B|----------------------------------|
G|---------------------------------------------|------------------------|
D|---------------------------------------------|------------------------|
A|--------------(6)---------------------------*|------------------------|
E|------------------------------3--2--1--------|--1-1-1-1-1-1--1-1-1--1-|
B|---------------------------------------------|------------------------|
SECTION I: GUITAR 2
G|------------------------------------------------|
D|------------------------------------------------|
A|*---------------------------------------------1-|
E|---0--0--1--1--2--2--1--1--0--0--1--1--2--2-----|
B|------------------------------------------------|
G|------------------------------------------------|
D|------------------------------------------------|
A|-----------------------------------------------*|
E|--0--0--1--1--2--2--1--1--0--0--1--1--2--2--4---|
B|------------------------------------------------|

SECTION J: GUITAR 2
G|------------------------------------------------------------------|
D|------------------------------------------------------------------|
A|*--7----------------7---------------7---------------7------8---8--|
E|------0-0-0--0-0-0-----0-0-0-0-0-0-----0-0-0-0-0-0----------------|
B|------------------------------------------------------------------|
G|------------------------------------------------------------------|
D|------------------------------------------------------------------|
A|-7----------------7---------------7----------------8------8---8--*|
E|----0-0-0-0-0--0-----0-0-0-0-0-0-----0-0-0-0-0-0------------------|
B|------------------------------------------------------------------|
6x
SECTION K:
G|------------------------------------------------------------------|
D|------------------------------------------------------------------|
A|---7----------------7---------------7---------------7------8---8--|
E|------0-0-0-0-0--0-----0-0-0-0-0-0-----0-0-0-0-0-0----------------|
B|------------------------------------------------------------------|
G|----------------------------------------------------------------------|
D|-----------------------------------------------9--10-10--9--10-10-9---|
A|-7--------------7---------------7-------------------------------------|
E|----0-0-0-0-0-0-----0-0-0-0-0-0----0-0-0-0-0-0------------------------|
B|----------------------------------------------------------------------|

G|-----------------------------------------|
D|-----------------------------------------|
A|----------7---------------7------8---8---|
E|-0-0-0-0-----0-0-0-0-0-0-----------------|
B|-----------------------------------------|
G|------------------------------------------------------|
E|----------------------------------------------------*|
A|----7------8---8-----7------8---8-------------------*|
E|--------------------------------------0--------------*|
B|------------------------------------------------------|





Ваше мнение



Капча