================================================================================
Title : Piece Of Time
Artist : Atheist
Album : Piece Of Time
Transcribed by : J. Litvak, converted and corrected by : Coypu
================================================================================

Some timings are not exact so listen to the song and you will have no trouble
figuring it out.

SECTION A: 2x (intro only) + 2x
G|--------------------------------------------------------|
D|*------------9--8------------------------9--8-----8-----|
A|---7----------------7--6-------7---------------7-----6--|
E|*-----6--5----------------5-------6--5------------------|
B|--------------------------------------------------------|

2x
G|--------------------------------------------------------|
D|-------------7--6-----------------------7--6------6----*|
A|---5---------------5--4-------5----------------5-----4--|
E|------4--5---------------3-------4--5------------------*|
B|--------------------------------------------------------|

G|--------------------------------------------------------|
D|--------------6--5-----------------------5--4-----------|
A|----4---------------4--3-------3---------------3--2-----|
E|-------3--4---------------2-------2--3---------------1--|
B|--------------------------------------------------------|

SECTION X (FILL FOR GUITAR INTRO SECTION B)
G|--------------------------------------------------------------
D|---------------1-----------------------------1----------------
A|-0----------0-------0--4--0--4--0---------0----------6--6-----
E|--------------------------------------------------4--------4--
B|--------------------------------------------------------------

G|-------------------------------------|
D|-------------------------------------|
A|--------5-------4--4-----------------|
E|-----4-------3--------3--4-----------|
B|-------------------------------------|

SECTION B: (Palm Mute entire second passage) 2x
G|-------|-------------------------------------------------------|
D|-------|---7----7--8--7--9---7--8---7--8---7--8---7---9--7--8--|
A|-pause-|-------------------------------------------------------|
E|-------|-------------------------------------------------------|
B|-------|-------------------------------------------------------|

2x
G|------------------------------------------------------|
D|--6-----6--7--6--8---6--7---6--7---6--7---6--8--6--7--|
A|------------------------------------------------------|
E|------------------------------------------------------|
B|------------------------------------------------------|

SECTION C: (There are some very small variations in timing) 2x
G|-----------------------------------------------------------------------|
D|*----------------------------------------------------------------------|
A|--7-7-7-7-7-7-7-7--7-7-7-7-6-6--6-6------------------------------------|
E|*------------------------------------6-6-6-6-5-5-5-5--5-5-5-5-5-5-5-5--|
B|-----------------------------------------------------------------------|

2x
G|-----------------------------------------------------------------------|
D|----------------------------------------------------------------------*|
A|--6-6-6-6-6-6-6-6--6-6-6-6-5--5-5-5------------------------------------|
E|-------------------------------------5-5-5-5-4-4-4-4--4-4-4-4-4-4-4-4-*|
B|-----------------------------------------------------------------------|

SECTION D: (3x)
G|--------------------------------------------------------------|
D|*-------------------------------------------------------------|
A|---------------------8---7-----6--5----------------1---4------|
E|*--0-0-0-0--0-0-0-0---------8--------0-0-0--0-0-0----------2--|
B|--------------------------------------------------------------|

G|-------------------------------------------------------------|
D|------------------------------------------------------------*|
A|-------------------6--5-------------4--3-----------------1---|
E|-3-3-3-3--3-3-3-3---------0--0---6--------0-0-0--0-0--3-----*|
B|-------------------------------------------------------------|

SECTION E: 2x
G|-------------------------------------------------------------|
D|*------------------------------------------------------------|
A|------------------------------------------------------6---7--|
E|*--0---0--3-3-3--2-2-2--6-6-6--5-5--5--8-8-8--7---8----------|
B|-------------------------------------------------------------|

5x
G|-------------------------------------------------------------------|
D|------------------------------------------------------------------*|
A|---------------------------------------------------6-(9)--7-(10)---|
E|-0--0--3-3-3--2-2-2--6-6-6--5-5-5--8-8-8--7----8------------------*|
B|-------------------------------------------------------------------|

SECTION F:
G|------------------------------------------------|
D|------------------------------------------------|
A|------------------------------------------------|
E|-2--------5---------3---------2----------2------|
B|------------------------------------------------|

SECTION G: 2X
G|-7-6--------------6--------7-6---------------6-----|
D|-----7-6------6-7---7-4--------7-6-------6-7---7-4-|
A|---------9-------------------------9---------------|
E|---------------------------------------------------|
B|---------------------------------------------------|

SECTION H:
G|--------------------------------------------------------------------------------|
D|--------------------------------------------------------------------------------|
A|--------------------------------------------------------------------------------|
E|----------------------------------5---------3----------2------------------------|
B|--------------------------------------------------------------------------------|

SECTION I: (4x)
G|------------------------------------------------------------|
D|*-----------------------------------------------------------|
A|------------------------------------------------------------|
E|*-5---5-5-5--5---5-5-5--5-5-5---3--3-3-3--3---3-3-3--3-3-3--|
B|------------------------------------------------------------|

G|-------------------------------------------------------------|
D|------------------------------------------------------------*|
A|-------------------------------------------------------------|
E|--2--2-2--2--2---2-2-2--2---2-2-2--2---2-2-2--2-2-2--2-2-2--*|
B|-------------------------------------------------------------|

REPEAT SECTIONS: G & (A.1+A.2) & C

BRIDGE:
G|----------------------------------------------------------------------------------|
D|----------------------------------------------------------------------------------|
A|-----------------7--6---5---------------------------------------------1---1---1--|
E|-----------------------------6--5----------------------------------------------------|
B|-------------------------------------------------------------------------------------|
* Bass plays harmonics.

SECTION J: (4x)
G|----------------------------------------------|
D|*--------------------------------------------*|
A|----------------------------------1---1---1---|
E|*---0-------------(0)------------------------*|
B|----------------------------------------------|

SECTION K: (4x)
G|-------------------------------------------------------------|
D|-------------------------------------------------------------|
A|-----------------------------------------------1----1----1---|
E|----0-0-0--0-0-0--0-0-0--0-0-0--0-0-0--0-0-0-----------------|
B|-------------------------------------------------------------|

LEAD 3 RHYTHM: 6x
G|-------------------------------------------------------------|
D|-------------------------------------------------------------|
A|-----------------------------------------------3----3----3---|
E|---2-2--2--2-2-2--2-2-2--2-2-2--2-2-2--2-2-2-----------------|
B|-------------------------------------------------------------|

1x
G|-------------------------------------------------------------|
D|-------------------------------------------------------------|
A|-----------------------------------------------1----1----1---|
E|---2-2-2--2-2--2--2-2-2--2-2-2--2-2-2--2-2-2-----------------|
B|-------------------------------------------------------------|

END: 7x
G|-------------------------------------------------------------|
D|-------------------------------------------------------------|
A|-----------------------------------------------1----1----1---|
E|---0-0-0--0-0-0--0-0--0--0-0-0--0-0-0--0-0-0-----------------|
B|-------------------------------------------------------------|

G|-------------------------------------------|
D|-------------------------------------------|
A|---1-----1-----1---------------------------|
E|-------------------------------------------|
B|-------------------------------------------|





Ваше мнение



Капча