================================================================================
Title : Life
Artist : Atheist
Album : Piece Of Time
Transcribed by : J. Litvak, converted and corrected by : Coypu
================================================================================

Some timings are not exact so listen to the song and you will have no trouble
figuring it out.

INTRO:
G|------------------------------------------------------------------------|
D|------------------------------------------------------------------------|
A|------------------------------------------------------------------------|
E|---------------------------------------------------0--------------------|
B|------------------------------------------------------------------------|

SECTION A:
G|------------------------------------------------------------------------|
D|------------------------------------------------------------------------|
A|*----------------------------------------------------------------------*|
E|--0-0-0-0-0-0--3-3-7-7-7-7-7-7--0-0-6-6-6-6-6-6-6-6--1-1-1-1-4-4-4--4---|
B|------------------------------------------------------------------------|

SECTION B:
G|-------------------------------------------------------------|
D|-------------------------------------------------------------|
A|*-----------------2--------------1--------------------------*|
E|---0--0-0-0-0--3-----0-0-0-0--3-----0-0-0-0-0-0--1----4------|
B|-------------------------------------------------------------|

SECTION C:
G|-------------------------------------------------------|
D|-------------------------------------------------------|
A|----------------1----------------------------------4/1-|
E|0---------------------0--------------------------------|
B|-------------------------------------------------------|

SECTION D:
G|--------------------------------------------------------------------|
D|--------------------------------------------------------------------|
A|*-------------------------------------------------------------------|
E|-0-0--5-5-6-6-7-7-6-6-5-5-6-6-5-5--0-0--5-5-6-6--7-7-6-6-5-5-6--6---|
B|--------------------------------------------------------------------|

G|---------------------------------------------------------------------|
D|---------------------------------------------------------------------|
A|-------------------------------------------------------------5------*|
E|-0-0--5-5-6-6-7-7-6-6-5-5-6-6-5-5--0-0--5-5-6-6--7-7-6-6-5-5-----4---|
B|---------------------------------------------------------------------|

SECTION E:
G|-----------------------------------------------------------------------|
D|-0-0-0-0-0-0-0-0--3-3-3-3-3-3-3-3------------------------3-3-----------|
A|*----------------------------------2-2-2-2--3-2-2-2--3-3-----3-3-2-2--*|
E|-----------------------------------------------------------------------|
B|-----------------------------------------------------------------------|

REPEAT SECTION D & E

BRIDGE 1: (Sounds improvised at times and almost impossible to tab so play around with it)
G||-----------------------------------------------------------------------------------------|
D||-----------------------------------------------------------------------------------------|
A||-----------------------------------------------------------------------------------------|
E||--1h2-------------1h2-------------1h-2---------1h-2---------1h-2-------------1-----------|
B||-----------------------------------------------------------------------------------------|

SECTION F: BOTH GUITARS
G|------------------------------------------------------------------------------------|
D|-------------------9-----------------7------------------9------------------7--------|
A|*------8p7-----8p7--------8p7-----5---------8p7-----8p7--------8p7------5----------*|
E|-0-0-0-----0-0--------0-0-----0-0-------0-0-----0-0--------0-0-----0-0--------0-0---|
B|------------------------------------------------------------------------------------|

BRIDGE 2:
G|------------------------------------------------------|
D|------------------------------------------------------|
A|----------------2-------------------------------------|
E|--0------------------3---------0----------------------|
B|------------------------------------------------------|

REPEAT SECTION F:

BASS FILL
G|---------------------------------------|
D|---------------------------------------|
A|---------------------------------------|
E|-0--0-0-0--3-7--7-7-7--0-6--6-6-6--1/4-|
B|---------------------------------------|

REPEAT SECTION A & E
END: BOTH GUITARS
G|-----------------------------------||--------------------------------|
D|-----------------------------------||--0-0-0-6-6-6--0-0-0-6-6-6------|
A|-------1---------1---------1-------||--------------------------------|
E|----0-----2--1------2--1------2----||----------------------------0---|
B|-----------------------------------||--------------------------------|
* Repeat Bridge 1.





Ваше мнение



Капча