================================================================================
Title : Enthralled In Essence
Artist : Atheist
Album : Unquestionable Presence
Transcribed by : J. Litvak, converted and corrected by : Coypu
================================================================================
SECTION A:
|-------------------------------------------------------|
|-------------------------------------------------------|
|-------------------------------------------------------| 2x
|--0--0--0---0--0--0---0--0---0--0--0---0--0--0---0--0--|
SECTION B:
|--------------------------9----------------------------------------|
|-----------------9-----9--------------------------------------5*---|
|-------------------7--------------------------------5-----5--------| 2x
|-0--0-0-0-0--0---------------------------3--3-3-3-3----3-----------|
* replace with a slide the last time
SECTION C:
|-------------------------------------------------------|
|-------------------------------------------------------|
|*-----------------------------------------------------*|
|---0--0--0-0-0-0--0-----0-----0--0--0-0-0-0--0-----0---|

SECTION D:
|------------------------------------------------------|
|------------------------------------------------------|
|------------------------------------------------------|
|--0--0--0-0-0-0--0-----0-----0--0--0-0-0-0--0-----0---|
|------------------------------------------------------|
|------------------------------------------------------|
|------------------------------------------------------|
|--0--0--0-0-0-0---0-----0-----0--0--0-0-0-0--0--------|
SECTION E:
|--------------------------------------------------------|
|*-------------------------------------------------------|
|*--0h-1--0-------------------0h--1--0-------------------|
|------------1---0--2--0--3-------------1---0--2--0--3---|
|------------------------------------------------------|
|-----------------------------------------------------*|
|--0h-1--0-------------------0h-1--0-------------5----*|
|-----------1---0--2--0--3------------1---0---3--------|

|------------------|
|------------------|
|-1---0-2--5---1---|
|---3--------5---3-|
SECTION F: 2x
|-------------------------------------------------------------------------|
|-----------------9-9-9-9-10-10-10-10-----------------10-10-10-10-9-9-9-9-|
|-7-7-7-7-7-7-7-7---------------------6-6-6-6-6-6-6-6---------------------|
|-------------------------------------------------------------------------|
|------------------------9-9-9-9-10-10-10-10-----------------10-10-10-10-9-9-9-9-|
|--------------------------------------------------------------------------------|
|--------------------------------------------------------------------------------|
|-10-10-10-10-10-10-10-10--------------------9-9-9-9-9-9-9-9---------------------|
|-------------------------------------------------------------------------|
|-----------------10-10-10-10-9-9-9-9-----------------9-9-9-9-10-10-10-10-|
|-7-7-7-7-7-7-7-7---------------------6-6-6-6-6-6-6-6---------------------|
|-------------------------------------------------------------------------|
|------------------------9-9-9-9-10-10-10-10-----------------10-10-10-10-9-9-9-9-|
|--------------------------------------------------------------------------------|
|--------------------------------------------------------------------------------|
|-10-10-10-10-10-10-10-10--------------------9-9-9-9-9-9-9-9---------------------|
SECTION G:
|-------------|
|-------------|
|--1/-2-------|
|--------1/-2-|
SECTION H:
|--------------------------------------------------|
|--------------------------------------------------|
|*-------------------------------------------------|
|---0--0--0-0-0---0----0----0--0--0-0-0-0--0----0--|
|-------------------------------------------(12)----|
|-------------------------------------------------------|
|------------------------------------------------------*|
|--0--0--0-0-0----0----0----0-0-0--0--0-----------------|
SECTION I:
|------------------------------10-----------------------|
|-----------------8---0----9--------0---0---6-----------|
|*--7---7-7-7-7---------------------------------5-------| 3x
|---------------------------------------------------7---|

|-------------------------------------------------|
|---------------8---0---9-------------------------|
|-7---7-7-7-7---------------1/--2----------------*|
|--------------------------------------1/--2------|
SECTION J:
|------------------------|
|------------------------|
|---4/--5----------------|
|-----------5------5-----|
|----------------------------------------------|
|----------------------------------------------|
|-1/--2----------4-5-0--0--0--0---1/-2---------|
|---------1/-2---------------------------1/-2--|
|--------------------------------------------------------------------|
|--------------------------------------------------------------------|
|-4-5-0--0---1/--2----------4-5-0--0--0--0---1/-2----------4-5-0--0--|
|--------------------1/-2---------------------------1/-2-------------|
|---------------------------------------------------------|
|---------------------------------------------------------|
|-1/-2-----------4-5-0--0--0--0---1/-2----------4-5-0--0--|
|--------1/-2----------------------------1/-2-------------|
SECTION K:
|-----------------------------------------------------------------------|
|----------------------------------------------x------------------------|
|-2------0-0-0------0-0-0-0-0-0-0-0-----------------2---2-2-2-2-2-2-2-2-|
|-----------------------------------3-----------------------------------|
Not as the original bass line but if you figure it out somehow let me know!
|---------3x--------|-----------------|
|-9-----------------|-----------------|
|---9-------------9-|-7-7-7-7-7-7-7-7-|
|-----10-9-7-9-10---|-----------------|
LEAD 1 RHYTHM:
|----------------------------------------------------------------------|
|----------------------------------------------------------------------|
|----------------------------------------------------------------------|
|---0-0-0-0-0-0-0-0-0-0-0-0-0-0-0-0--3-3-3-3-3-3-3-3--3-3-3-3-3-3-3-3--|
|----------------------------------------------------------------------|
|----------------------------------------------------------------------|
|-----------------------------------------------------2-2--------------|
|-2-2-2-2-2-2-2-2---2-2-2-2-2-2-2-2--5-5-5-5-5-5-5-5------5-5-3-3-3-3--|
|----------------------------------------------------------------------|
|----------------------------------------------------------------------|
|----------------------------------------------------------------------|
|--0-0-0-0-0-0-0--0--0-0-0-0-0-0-0-0--5-5-5-5-5-5-5-5--5-5-5-5-5-5-5-5-|
|----------------------------------------------------------------------|
|----------------------------------------------------------------------|
|----------------------------------------------------------------------|
|-3-3-3-3-3-3-3--3--3-3-3-3-3-3-3-3--2-2-2-2-2-2-2-2--2-2-2-2-2-2-3-3--|
|------------------------------------------------------------------------------------|
|------------------------------------------------------------------------------------|
|--------------------------------------------------------------------------0-0-0-0-0-|
|---0---0--0-----------0-2--3---0--3----------3-3---2---0--2----------2-2------------|
|-------------------------------------------------------------------------|
|-------------------------------------------------------------------------|
|-0-0-0--0-0-0-0-2-2-2-2--------------------------------------------------|
|----------------------------0---0--0----------0-0--5---0--5----------5-5-|
|--------------------------------------------------------------------|
|--------------------------------------------------------------------|
|--------------------------------------------------------------------|
|-3-3-3-3-3-3-3-3--3-3-3-3-3-3-3-3--2-2-2-2-2-2-2-2--2-2-3-3-2-2-1-1-|
SECTION L:
pause
|------------------------------------------------------|
|------------------------------------------------------|
|-----------------------------------7/--8--7-6--7----|
|-------0-0-0--0-0-0--0-0-0--0-0-0---------------------|
|------------------------------------------------------------|
|------------------------------------------------------------|
|--------------------------------------7/--8--7-6--7--------|
|--0-0-0--0-0--0--0-0-0--0-0-0--0-0-0------------------------|
|---------------------------------------------------------|
|---------------------------------------------------------|
|--------------------------------------7/--8--7-6--7----|
|---------0-0-0--0-0-0---0-0-0--0-0-0---------------------|
-----------------------------------------------------------|
-----------------------------------------------------------|
-------------------------------------7/--8--7-6--7--------|
--0-0-0--0-0-0--0-0-0--0-0-0--0-0-0------------------------|
|----------------------------------------------------|
|----------------------------------------------------|
|-------------------------------------7/--8--7--0----|
|---------0-0-0--0-0-0--0-0-0--0-0-0---------------6-|
pause
REPEAT SECTION E
REPEAT SECTION A
SECTION M:
|-------------------------------------------------------|
|-------------------------------------------------------|
|7-7-7-7-7-7-7-7-7-7-7-7-7-7-7--7-7-6-6-5-5-------------|
|-------------------------------------------7-7-6-6-5-5-|
|--------------------------------------------------------------------------------|
|---------------------------------------------9-9-9-9-9--9-9-9--8-8-8-8-8-8-8-8--|
|---7-7-7-7-7-7-7-7--10-10-10-10-10-10-10-10-------------------------------------|
|--------------------------------------------------------------------------------|
|-----------------------------------------------------------------------|
|-----------------------------------------------------------------------|
|--7-7-7-7-7-7-7-7--5-5-5-5-5-5-5-5--8-8-8-8--8-8-5/-8-8-8-8-8-8-8-8-8--|
|-----------------------------------------------------------------------|
--------------------------------------------------------------------------------|
--------------------------------------------------------------------------------|
----------------------------------------------9-9-9-9-9-9-9-9--8-8-8-8-8-8-8-8--|
---7-7-7-7-7-7-7-7--10-10-10-10-10-10--10-10------------------------------------|
|--------------------------------------------------------------------|
|--------------------------------------------------------------------|
|--------------------------------------------------------------------|
|--7-7-7-7-7-7-7-7--5-5-5-5--5-5-5-5--8-8-8-8-8-8-0-0--1--0-1--0-1---|
LEAD 3 RHYTHM:
|-------------------------------------------------------|
|-------------------------------------------------------|
|*--7--5--7--8---7--5--7------7--5--7--8---7--5--7------|
|-------------------------6-------------------------6---|
|-------------------------------------------------------|
|------------8-------------------------8----------------|
|---7--5--7------7--5--7------7--5--7------7--5--7-----*|
|-------------------------6-------------------------6---|
SECTION N:
|--------------------------------------------------------------------------------|
|---------------------------------------------9-9-9-9-9-9--9-9--8-8-8-8-8-8-8-8--|
|---7-7-7-7-7-7-7-7--10-10-10-10-10-10-10-10-------------------------------------|
|--------------------------------------------------------------------------------|
|------------------------------------------------------------------------|
|------------------------------------------------------------------------|
|--7-7-7-7-7-7-7-7--5-5-5-5-5-5-5-5--8-8-8-8-8--8-5/-8-8-8-8-8-8-8-8-8---|
|------------------------------------------------------------------------|

|-------------------------------------------------------------------------------|
|-------------------------------------------------------------------------------|
|---------------------------------------------9-9-9-9-9-9-9-9--8-8-8-8-8-8-8-8--|
|---7-7-7-7-7-7-7-7--10-10-10-10-10-10-10-10------------------------------------|
|-------------------------------------------------------|
|-------------------------------------------------------|
|-------------------------------------------------------|
|--7--7--7--0---5--5--5--0----8---8---8---0--1-------1--|





Ваше мнение



Капча