================================================================================
Title : An Incarnation's Dream
Artist : Atheist
Album : Unquestionable Presence
Transcribed by : J. Litvak, converted and corrected by : Coypu
================================================================================

INTRO: (slow)
|-------------------------------------------------------------------------------|
|-------------------------------------------------------------------------------|
|-2---0-------2---0-------2---0-------2---0------/5--4----------5--4-4----------|
|---------3-----------3-----------3-----------3---------6--5-5----------6--5----|

SECTION A:
|----------------------------------------------------------------------|
|*--------------------------------------------------------------------*|
|*-2-2-2-2-2-2--0-0-0-0-0-0-----------2-2-2-2-2-2--0-0-0-0-0-0--------*|
|----------------------------3-3-3-3---------------------------1-1-1-1-|

|----------------------------------------------------------------------|
|*--------------------------------------------------------------------*|
|*-5-5-5-5-5-5--4-4-4-4-4-4-4-4-4-4-----------------------------------*|
|------------------------------------6-6-6-6-6-6--5-5-5-5-5-5-5-5-5-5--|

|----------------------------------------------------------------------|
|*--------------------------------------------------------------------*|
|*-2-2-2-2-2-2--0-0-0-0-0-0----------2-2-2-2-2-2--0-0-0-0-0-0---------*|
|---------------------------3-3-3-3---------------------------1-1-1-1--|

|----------------------------------------------------------------------|
|----------------------------------------------------------------------|
|--5-5-5-5-5-5--4-4-4-4-4-4-4-4-4-4------------------------------------|
|------------------------------------6-6-6-6-6-6--5-5-5~5-5-5-5-5-5-5--|

|------------------------------------------------------------------|
|------------------------------------------------------------------|
|-5-5-5-5-5-5--4-4-4-4-4-4-4-4-4-4-----------------------------0-1-|
|-----------------------------------6-6-6-6-6-6--5-5-5-5--3-1------|

SECTION B:
|---------|-----------------------------------------------------|
|---------|-----------------------------------------------------|
|--pause--|---------------------5---5---4-----------------------|
|---------|--5-----5--5-------6---6---6---5---5--5-5----5-------|

|----------------------------------------------------|
|----------------------------------------------------|
|---------------5---5---4------------------5---5---4-|
|-6----6--6---6---6---6---6--6----6--6---6---6---6---|

SECTION C:
G|-----------------------------------------10-12---------------------|
D|---------------------------------9-11-12-------12-10-9-------------|
A|---------------------------10-12-----------------------12----------|
E|-5--5-5--------------11-12--------------------------------6-6-----|
B|---------11-10-11-10-----------------------------------------------|
1 2 1 2 3 2 1 2 3 2 1 3 2 1 3 2 1


|-----------------------------------------------------|
|-----------------------------------------------------|
|---------------5---5---4------------------5---5---4--|
|-6----6--6---6---6---6---6--6----6--6---6---6---6----|

|-----------------------------------------------------|
|-----------------------------------------------------|
|*--------------------5---5---4----------------------*|
|--5-----5--5-------6---6---6---5---5--5-5----5-------|

REPEAT SECTION A: WITHOUT THE LAST 4 NOTES

SECTION E:
|-----------|
|-----------|
|-----------|
|-3--1--0---|

SECTION F:
G|-----------------------------------------------------------------|
D|*----------------------------------------------------------------|
A|---7p6----------------------------7p6----------------------------|
E|*------0-0-0-0--7p6-0-0--5--6--7------0-0-0-0--7p6-0-0-----------|
B|--------------------------------------------------------6-8-8-6--|

|------------------------------------------------------------------|
|-------------------------------------------------------------10--*|
|-7p6----------------------------7p6----------------------9-9-----*|
|-----0-0-0-0--7p6-0-0--5--6--7------0-0-0-0--7p6-0-0-8-8----------|

BRIDGE:
|------------------------------------------|
|------------------------------------------|
|------------------------------------------|
|--0-0-0--0--------------------------------|

LEAD 1 RHYTHM:
|------------------------------------------------|
|*----------------------------------------------*|
|*----------------------------------------------*|
|---0-0-0--0--------------0--0-0-----------------|

|-----------------------------------------|
|-----------------------------------------|
|-----------------------------------------|
|--0-0-0--0-------------------------------|

SECTION G:
|-------------------------------------------------|
|-------------------------------------------------|
|-2-------2---2-------2---2-------2---2p--0------*|
|-----1-----------1-----------1---------------1---|


|---------------------------------------------------|
|-----------------------------------------------4---|
|*--3-------3---3-------3---3-------3---3----------*|
|-------2-----------2-----------2-----------2-------|

SECTION H: 6x
|-------------------------------|--------------|
|----------------------------2--|--------------|
|--6-----5--4--7--3-------2-----|--6-----5--4--|
|-----4----------------5--------|-----4--------|

|----9-----------8------------7-----------6-------|
|*-----------------------------------------------*|
|*-7-----7---6-------6---5--5-----4-----4-----4--*|
|-------------------------------------------------|

|-------------------------------------------------------|
|-------------------------------2-----------------------|
|----6-----5--4--7--3--------2-------6-----5--4--7--3---|
|-------4-----------------5-------------4---------------|

|---------------------------------------------------------|
|------------------------------------2--------------------|
|--------7--6-----5--4--7--3-----2------6-----5--4--7--3--|
|--5--7--------4--------------5------------4--------------|

|----------------------------------------------|
|----------------------------------------------|
|--------2-------------------------------------|
|--5--2-----6------------4--0--3--4------------|

SECTION I:
|------------------------0-3-5-----------------------0-3-5--|
|-----------------------------------------------------------|
|-----------------------------------------------------------|
|---3--3-3--3-3-3--3--3-----------3--3--3-3-3--3--3---------|


|----------------------0-3-5-----------------------0-3-5---|
|----------------------------------------------------------|
|----------------------------------------------------------|
|--3--3--3-3-3--3--3------------3--3--3-3-3--3--3----------|

|--------------------------/14----------------| the last part
|-------------------7~-----------------------| is hard to
|-----5----------5-----------------4-4-5-4-2-| hear but it
|---------------------------------------------| is there.

SECTION J:
|----------------------------------------------------------|
|----------------------------------------------------------|
|*--------------------------------------------------------*|
|---3--3--3-3-3--3--3--/-----3---3--3-3-3--3--3--/-------|

SECTION K:
|-------------------------------------/----9-----------|
|-------------------------/--7-------------------------|
|------------------/--7~-------------------------------|
|---/---5----------------------------------------------|

|-----------------------0-3-5-------------------------------|
|---------------------------------------------------3-4-5---|
|*---------------------------------------------------------*|
|---3--3--3-3-3--3--3------------3--3--3-3-3--3--3----------|

SECTION L:
|------------------------------------------------------|
|------------------------------------------------------|
|--------7------8----------------7------8--------------|
|---0--------0------0--8-0--0--------0------0--8-7-8---|

|------------------------------------------------------|
|-----------------------------------------------------*|
|*------7-------8-------------------7------8-----------|
|--0--------0-------0--8-7-8---0--------0------0---8---|

|------------------------------------------------------|
|------------------------------------------------------|
|-------7------8----------------7------8---------------|
|--0--------0------0---8---0--------0------0---8-7-8---|

SECTION M:
G|-------------------------------------------------------------|
D|-------------------------------------------------------------|
A|*-----------------------------------------------------------*|
E|---5-5-5------------------------5-5-5------------------------|
B|----------5-5-5--6-6-6--5-5-5----------5-5-5--6p--5---5---5--|

|----------------------------------------7--7--7--7-----------|
|-------------------9--9--9--9-----------------------9--------|
|-7-7-7-7----------------------9-9-9-9------------------------|
|---------7-7-7-7---------------------------------------------|

|----------------------------------12-12-12-12-11---------|
|--(9)---------12-12-12-12-9-9-9-9------------------------|
|--------------------------------------------------------*|
|---------------------------------------------------------|

|------------------------|
|-------------4----------|
|--6---------(6)---------|
|--------------------1---|

SECTION N:
|----------------------------------------------------------------|
|----------------------------------------------------------------|
|*-------------------7-6-----------6/-7-----------7-6---8-----*|
|---0-0-0-0-0-0-0-0--------0-0-0-0--------0-0-0-0----------------|

SECTION O:
|---------------------------------------------------|
|*-------------------------------------------------*|
|*--2-------2---2-------2---2-------2---2p--0------*|
|-------1-----------1-----------1---------------1---|

|---------------------------------------------------|
|*----------------------------------------------4--*|
|*--3------3---3--------3---3-------3---3----------*|
|-------2-----------2-----------2-----------2-------|

|----------------------------------------------------|
|*--------------------------------------------------*|
|*--2-------2---2-------2---2-------2---2p--0-------*|
|-------1-----------1-----------1---------------1----|

|----------------------------|
|----------------------------|
|------7------8--------------| 3x
|--0-------0------0--8-7-8---|

|----------------------------|
|----------------------------|
|---------7------8-----------|
|----0--------0------0---8---|

|------------------------------------------------|
|------------------------------------------------|
|--------7-------8-------------------------------|
|--0--0-------0-------0--8--7----8--------------|





Ваше мнение



Капча