BOLERO FALAZ by Aterciopelados
\Andrea E. and Hector B.\
Tabbed by: Todd "el coroncho" Golden
(Por si acaso me conoces tendrias la bondad de escribirme por favor?!)
I tried to get the timming and chord changes in sinc with the lyrics but you'll have to listen to the CD. I haven't found anything else by these guys, I heard them for the first time in down when I lived in Colombia, I have their second album, but I'd like to listen to anything new they might have. If anyone has any info I'd be "muy agradecido" if you'd pass me a line [email protected].... this is my first tab so if there are any errors please be so kind as to tell me.... other than that enjoy the song and keep on "cantando!"
ЎQUE VIVA EL CORRONCHO PIPON!
CHORDS:
E F#m Abm G#m
E-------0---- -----2---------4----------3----
B-------0---- -----2---------4----------3----
G-------1----------2---------4----------4----
D-------2----------4---------6----------5----
A-------2---- -----4---------6----------5----
E-------0---- ------2---------4----------3----
F# B B7 C#m
E-----2----------2------------2----------4----
B-----2----------4------------0----------5----
G-----3----------4------------2----------6----
D-----4----------4------------1----------6----
A-----4----------2------------2----------4----
E------2---------2------------0----------4----
(I love this intro... just improv it if it doesn't sound right)
(clean and slightly soft) acoustic guitar
INTRO:
E F#m Abm G#m
E---------0---0-----------2---2--------------4---4----------------3---
B---------0---0-----------2---2--------------4---4----------------3---
G---------1---1-----------2---2--------------4---4----------------4---
D------------------------------------------------------------------------
A--------------------------------------------------------------5---------
E---0-------------0----2-----------2----4--------------4--------------
F# B B7 E
E--------2-------------2--------------2----------------0----------------
B--------2-------------4--------------0----------------0----------------
G--------3---------4------------------2----------------1---------------
D---------------------------------1---------1---------- 2---------------
A----4--------2------------2---------------------------2---------------
E--------------------------------------------------------0---------------
(come in loud with chords and lyrics)
(electric guitar hard and slightly dirty)
MAIN RIFF:
E F#m Abm G#m F#
Buscas en mis bosillos Pruebas de otro cariсo
E F#m Abm G#m F#
Pelos en la solapa esta sonrisa me delata
E F#m Abm G#m F#
Labial en la camisa mi coartada estб hecha trizas
E F#m Abm G#m F#
Estoy en evidencia engaсar tiene su ciencia
PRE CHORUS:
C#m B
Estoy hasta la coronilla
C#m B
Tu no eres mi media costilla
C#m B
Ni la octava maravilla
C#m B
CHORUS:
E F#m B
Mala si si malo si no ni pre----guntes
E F#m B
Ya no soy yo fuera de mi es que me tienes
B E F#m Abm C#m B7
Que si vengo que no voy que si estoy que me pierdo
B7 E F#m Abm C#m B7
Que si tengo que no doy que si estoy que me vengo
E F#m B
Mala si si malo si no ni pre----guntes
E F#m B
Ya no soy yo fuera de mi es que me tienes
B E F#m Abm C#m B7
Que si vengo que no voy que si estoy que me pierdo
B7 E F#m Abm C#m B7
Que si tengo que no doy que si estoy que me vengo
MAIN RIFF:
E F#m Abm G#m F#
Lo siento en tus manos tus caricias me han robado
E F#m Abm G#m F#
Lo huelo en tu boca esos besos ya son de otra
E F#m Abm G#m F#
Quien serб esa infame que no deja que yo te ame
E F#m Abm G#m F#
Si yo la encontrara le partirнa esa cara
PRE CHORUS:
C#m B
Estoy hasta la coronilla
C#m B
Tu no eres mi media costilla
C#m B
Ni la octava maravilla
C#m B
CHORUS:
E F#m B
Mala si si malo si no ni pre----guntes
E F#m B
Ya no soy yo fuera de mi es que me tienes
B E F#m Abm C#m B7
Que si vengo que no voy que si estoy que me pierdo
B7 E F#m Abm C#m B7
Que si tengo que no doy que si estoy que me vengo
E F#m B
Te dije no mбs y te cagaste de risa
E F#m B
Te dije no mбs y te cagaste de risa
E F#m B
Te dije no mбs y te cagaste de risa
E F#m B
Ja ja ja ja.





Ваше мнение



Капча