Song: Rolodex Propaganda
Album: Relationship Of Command
Artist: AT The Drive-In
Tabbed by: Jeremy [email protected]
-- Rolodex Propaganda --
Regular Tuning
bu = bend up
bd = bend down
h = hammer on
p = pull off
1st bar...p.s. don't try too hard to get it perfect
coz it dunt sound too perfect...
gu1
___
e:-------|----------------0----------------------|
b:-------|---5bu-bd-bu------0h7-0---8--------10--|
g:-------|----------------------0h9---0h9h11-----|
d:-------|---------------------------------------|
a:--0-0--|---------------------------------------|
E:-------|---------------------------------------|
that's the 1st of the 2 weird bits at the begining...
but i can't figure out the other one so good...
i'll have to try harder or something.. i dunno...
it's basically similar.. bu different....
and it starts with the bending of the 9th fret
on the b string...
gu2
___
cedric plays this...
....
play these notes really fast... you can hear it in the right speaker...
g:---14---|
d:--------|
a:---12---|
______________________________________
bridge
e:----------------------------------|-------------------------------|
b:----------------------------------|-------------------------------|
gu1 g:----101010----101010--101014141212|-------------------------------|
d:----------------------------------|--1010--1010--1010--1010--1010-|
a:----8-8-8-----8-8-8---8-8-12121010|-------------------------------|
E:----------------------------------|--8-8---8-8---8-8---7-7---7-7--|
e:----------------------------------|-------------------------------|
b:----------------------------------|-------------------------------|
gu2 g:--7-7---7-7---7-7---7-7---7-7-7-7-|--2-2---2-2---1-1---1-1---1--1-|
d:----------------------------------|-------------------------------|
a:--8-8---8-8---8-8---8-8---8-8-8-8-|--3-3---3-3---2-2---2-2---2--2-|
E:----------------------------------|-------------------------------|
______________________________________
chorus
e:------|------|-----|-----|
b:------|------|-----|-----|
g:--10--|--10--|-----|-----|
d:--10--|--10--|--7--|--5--|
a:--8---|------|--7--|--5--|
E:------|--7---|--5--|--3--|
______________________________________
other bit
E:----5----5-3----3/8----83-------




Ваше мнение



Капча