Artist: At the Drive-in
Song: Rascuache
Album: Vaya
Tabbed By: Jeremy [email protected]
intro
bu = bend up 1/2
bd = bend down back to normal note
e-16bu-bd-bu-----------|x2
b-16bu-bd-bu-----------|
g----------------------|
d----------------------|
a----------------------|
E----------------------|
delay effect, slow, not much feedback on the delay
e-(12)----12------|-------14-----|-------17-----|----14-15-----|
b-(12)-12----12---|----12--------|----15--------|--------------|
g-----------------|-14-----------|-17-----------|-16-----------|
d--14-------------|--------------|--------------|--------------|
a-----------------|--------------|--------------|--------------|
E-----------------|--------------|--------------|--------------|
just b4 verse1
b--12--------|
g--14bu------|
Verse Chords
e-0---|-X---|-X---|-X--X--|
b-0---|-5---|-5---|-5--5--|
g-7---|-0---|-7---|-0--0--|
d-6---|-7---|-X---|-5--5--|
a-7---|-5---|-7---|-X--5--|
E-X---|-X---|-5---|-3--X--|
Chorus is the same but the last chord does not change, it stays the same
throughout the bar
middle bit
slight bend on first chord bit
e--------------|--------------|---------------|---------------|
b-5-----5------|----0---------|--5---7p0------|--5---7p0------|
g-4-------4----|------0-2p0---|-0---0----7p0--|-0---0----7p0--|
d-4---------5--|--5---------2-|---------------|---------------|
a--------------|--5-----------|---------------|---------------|
E--------------|/3------------|---------------|---------------|




Ваше мнение



Капча