Author/Artist: At the Drive In
Title: One Armed Scissor
Album: Relationship of Command
Transcribed by: Dan Brophy
Email: Tyler Durden [email protected]
I would like to stress the fact that i didnt get this outta
Guitar mag. this song was a real bitch to figure out and tab out
So go easy on the reviews
-|---------0---------0--------------------------------------------------------
-|--88888--0--88888--0--------------------------------------------------------
-|--77777--0--77777--0--------------------------------------------------------
-|--00000--0--00000--0--------------------------------------------------------
-|--77777-----77777-----------------------------------------------------------
-|--00000-----00000-----------------------------------------------------------
Intro for both guitars
-|---------------------------|----------------------------------|---------14--
-|------0---------------0----|-------0----------------0---------|------15-----
-|-----0---------------0-----|----0-----------------0-----------|---14--------
-|9-10-------9-10-9-10-------|9-10--------9-10-9-10-------9-10--|-------------
-|---------------------------|----------------------------------|-------------
-|---------------------------|----------------------------------|-------------
Guitar 1 verse
-|-7---0-0-7--0--0|7--0-077-0---0|-12--12-12-12-12-12|-12-12-12-12-12-12------
-|-0-0--0--0-0--0-|0-0-0-000--0--|12--12-12-12-12-12-|12-12-12-12-12-12-------
-|-0-------0------|0-----00------|-------------------|------------------------
-|-7-------7------|7-----77------|-------------------|------------------------
-|----------------|--------------|-------------------|------------------------
-|----------------|--------------|-------------------|------------------------
Guitar 2 verse. this is repeated a few times
-|00000--0---------|----------------------------------------------------------
-|88888--0--77777--|----------------------------------------------------------
-|77777--0--77777-2|1010101010101010-55555555---------------------------------
-|00000--0--77777--|1010101010101010-55555555---------------------------------
-|77777--x--55555-2|-8-8-8-8-8-8-8-8-33333333---------------------------------
-|00000--x---------|----------------------------------------------------------
Chorus. both guitars here
--|---------------|-----------------------------------------------------------
--|---0--0--0--0--|---0---0--0---0--------------------------------------------
--|--0--0--0--0---|--0---0--0---0---------------------------------------------
--|-2--2--2--2----|-2---2--2---2----------------------------------------------
--|0-----0--------|0----------------------------------------------------------
--|---------------|----3--2---0-----------------------------------------------
Bridge. both guitars agian
-|-0-12-0-10-0-0-5-00-10-0-0-0-5-7|-0-12-0-10-0-0-5-0-0-0-------7-8-7---------
-|--------------------------------|-----------------------8-7-----------------
-|--------------------------------|-------------------------------------------
-|--------------------------------|-------------------------------------------
-|--------------------------------|-------------------------------------------
-|--------------------------------|-------------------------------------------
2nd verse. guitar 2
-|-----------------------------------------|----------------------------------
-|-----------------------------------------|----------------------------------
-|-----------------------------------------|----------------------------------
-|-10-10-10-10-10-10-10-10-9-9-9-9-9-9-9-9-|77777777-55555555-----------------
-|-12-12-12-12-12-12-12-12-1212121212121212|99999999-77777777-----------------
-|-----------------------------------------|----------------------------------
2nd verse. guitar 1. PM throughout
-|----------------------------------|-----------------------------------------
-|-0-0-0-0-0-0-0-0-0-0-0-0-0-0-0-0--|0-0-0-0-0-0-0-0-0-0-0-0-0-0-0-0----------
-|-0-0-0-0-0-0-0-0-0-0-0-0-0-0-0-0--|0-0-0-0-0-0-0-0-0-0-0-0-0-0-0-0----------
-|-10101010101010109-9-9-9-9-9-9-9--|7-7-7-7-7-7-7-7-5-5-5-5-5-5-5-5----------
-|-12121212121212121010101010101010-|9-9-9-9-9-9-9-9-7-7-7-7-7-7-7-7----------
-|----------------------------------|-----------------------------------------
-|----------------------------|----------------787----------------------------
-|-----------13-----------12--|-----10---------787----------------------------
-|----------------------------|-----------------------------------------------
-|10101010--------9-9-9-9-----|7777------5555---------------------------------
-|12121212--------10101010----|9999------7777---------------------------------
-|----------------------------|-----------------------------------------------
PM this part. Play 3 times
-|-------------------------|--------------------------------------------------
-|-------------------------|--------------------------------------------------
-|--------13------------12-|-----10-------------------------------------------
-|-------------------------|--------------------------------------------------
-|10101010-----9-9-9-9-----|7777-------5555555555555555-----------------------
-|12121212-----10101010----|9999-------7777777777777777-----------------------
Guitar 1, PM, onece Guitar 2 is done above, then Chorus, then below
-|----------------|------------------|---------------|------------------------
-|1212121212121212|101010101010101012|8-8-8-8-7-7-7-7|5-5-5-8-8---------------
-|----------------|-7-7-7-7-7-7-7-7-9|---------------|-------------8-8-8-8----
-|-9-9-9-9-9-9-9-9|------------------|5-5-5-5-5-5-5-5|2-2-2-5-2---------------
-|----------------|------------------|---------------|-------------6-6-6-6----
-|----------------|------------------|---------------|------------------------
-|-----------------|----------------------------------------------------------
-|----0---------7--|----------------------------------------------------------
-|-----------7----7|----0----------8------------------------------------------
-|--5----5-5-------|----------------------------------------------------------
-|7----------------|--7---7---6-------6---------------------------------------
-|-----------------|8-------7-------------------------------------------------
Guitar 2 w/some effects. repeate 3 times then strum through below
-|0-------2------|-3---2---|-0---2------|-3-----------------------------------
-|0-------0------|-1---0---|-0---0------|-1-----------------------------------
-|0-------0------|-0---2---|-0---0------|-0-----------------------------------
-|2-------0------|-2---1---|-2---0------|-2-----------------------------------
-|2-------x------|-3---2---|-2---x------|-3-----------------------------------
-|0-------3------|---------|-0---3------|-------------------------------------
Guitar 1, PM
-|-7-------7-----|------------|-7-------7----|--------------------------------
-|-0-------7-----|-8-----7----|-0-------7----|--8-----------------------------
-|-0-------7-----|-9-----8----|-0-------7----|--8-----------------------------
-|-5-------5-----|-10----7----|-5-------5----|--10----------------------------
-|-7-------------|-10----9----|-7------------|--10----------------------------
-|-0-------------|-8-----7----|-0------------|--8-----------------------------




Ваше мнение



Капча