AT THE DRIVE-IN
ONE ARMED SCISSOR

intro:
G--------------------------------------------
D--------------------------------------------
A--------------7-------------7---------------
E----0-0-0-0-0-----0-0-0-0-0-----------------

verse 1:
G---------------------------------------------
D-----------------------------7777555544442222
A---0----0----0----0----00--------------------
E---------------------------------------------X4

chorus
G---------------------------------------------
D---------------------------------------------
A-------------7--5-5-5-5-5---888888888--------
E---0-0-0-0-0--------------7----------88888888x4

bridge:
G---------------------------------------------
D----------------------7777555544442222-------
A-0-0---0-0-2-3-2-0---------------------------
E-----3-------------3-------------------------x2

verse 2:

G-------------------------------2-------------
D---------------------------0-2---2-----------
A---------------------------------------------
E-5-5---5-3-3--3-2-2---2-0-0--------3---------x7

G--------------------------------------------
D--------------------------------------------
A---------------------2222222222222222-------
E-5-5---5-3-3--3-2-2-------------------------x1

(just add in your own things like slides or whatever you feel neccessary,where neccessary)

chorus x4

verse 3:

G--------------------------------------------
D----------55555555------5555----------------
A-------------------3333------22222222-------
E-00000000-----------------------------------x6

G--------------------------------------------
D----------55555555--5--5---4--4-------------
A-------------------3--3---2--2--------------
E-00000000-----------------------------------x1

G--------------------------------------------
D----------55555555--5--5--------------------
A-------------------3--3----22222222222222222
E-00000000-----------------------------------

chorus x4

outro
G--------------------------------------------
D--------------------------------------------
A88888888--------88888888--------------------
E--------88888888--------888888888-----------

G--------------------------------------------
D--------------------------------------------
A--------------------------------------------
E---0-0-0-0-0---0----------------------------

if you have any problems let me know at:
[email protected]




Ваше мнение



Капча