Song: non-zero possibility
Artist: at the drive-in
Album: Relationship Of Command
Tabbed By: Jeremy [email protected]

*most of this song is piano, so i just transcribed the piano parts into guitar
(1.1)
e|--------3----------2----------0----------------------------|
b|-----------------------------------------3-----------------|
g|-----2----------2--------2------------2--------------------|
d|---5---------5--------5------------5-----------------------|
a|-----------------------------------------------------------|
E|-----------------------------------------------------------|

Guitar 1 (2.1.) x2 x1
e|-------------------------------------|---------------------------------|
b|------5-----0-------3------5---------|----5-0----3-----5--3------------|
g|--2-------------2------2-----2-------|--2-----2-----2-------2----------|
d|-------------------------------------|---------------------------------|
a|-------------------------------------|---------------------------------|
E|-------------------------------------|---------------------------------|

Guitar 2 (2.1) along w/ guitar 1
e|---3----2--------------------------------------------------|
b|-----3----3------------------------------------------------|
g|-----------------------------------------------------------|
d|-----------------------------------------------------------|
a|-----------------------------------------------------------|
E|-----------------------------------------------------------|

then (3.1)
e|--0---0-----0---0--0---------------------------------------|
b|--0---0-----0---0--3---------------------------------------|
g|--0---0-----7---5--4---------------------------------------|
d|--7---2-----7---5--4---------------------------------------|
a|--7---2-----5---3--2---------------------------------------|
E|--5---0----------------------------------------------------|

drums in...back to (2.1)

then (2.1) with something in the background....like
end x8
e|-----5---3---0-----3---5------|--------0-------------------|
b|------5--------0-0---0--------|-----1----------------------|
g|------------------------------|---2------------------------|
d|------------------------------|----------------------------|
a|------------------------------|----------------------------|
E|------------------------------|----------------------------|




Ваше мнение



Капча