Intro/Verse 1
e:----0-7-10-7-0--|---0-5-7-5-0--|---0-5-7-5-0--|---0-5-7-5-0--|
b:----------------|--------------|--------------|--------------|
g:--9-------------|-7------------|--5-----------|-7------------|
d:----------------|--------------|--------------|--------------|
a:----------------|--------------|--------------|--------------|
e:----------------|--------------|--------------|--------------|
Riff 2 Interlude
e:----0-----0-----0-----0---|repeated
b:--7---7-8---8-7---7-5---5-|
g:--------------------------|
d:--------------------------|
a:--------------------------|
e:--------------------------|
riff 3 Verse 2
Contine riff from riff 2 for half the verse then plays:
e:----0-----0-----0------0---|-for the rest of the verse
b:--7---7-8---8-7---7/10---8-|
g:---------------------------|
d:---------------------------|
a:---------------------------|
e:---------------------------|
odd bars before chorus
e:---------------------------|
b:--7-7-7-8-8-8--7-7-7-8-8-8-|
g:---------------------------|
d:---------------------------|
a:---------------------------|
e:---------------------------|
CHORUS
Chords are
Em// Bm// | D// C// |
Gu1 plays something like this underneath the crunchy chords:
e:---------------------------|-------------------------------------|
b:--7-7-7-8-8-8--7-7-7-8-8-8-|-10-10-10-12-12-12----------------10-|
g:---------------------------|-------------------12-12-12-12-12----|
d:---------------------------|-------------------------------------|
a:---------------------------|-------------------------------------|
e:---------------------------|-------------------------------------|
Bit after Chorus Riff 4
Play these chords:
Em// D// | C//// |
e:-------------------------|----0-------0-------0------0----|
b:----7-0-----------7-0----|-12---12-12---12-10---10-8---0--|
g:---------7-0--------7-0--|--------------------------------|
d:-------------------------|--------------------------------|
a:-------------------------|--------------------------------|
e:-------------------------|--------------------------------|
then play riff 3 again
play the chorus again




Ваше мнение



Капча