Song: Metronome Arthritis
Artist: At The Drive-In
Album: Vaya
Tabbed By: Jeremy [email protected]
INTRO / VERSE
||: A C B :||
RIFF in verse (first appearance at 0:51 seconds)
use an octave pedal up one octave
e--15--10--12--10--12-------10--5---------
b-----------------------------------------
g-----------------------------------------
d-----------------------------------------
a-----------------------------------------
E-----------------------------------------
PRE-CHORUS
e-----------------------------------------------------
b--5--4--0--1----------0--1--------0-----0--1--0------
g-------------------2-----------2---------------------
d-------------------------------------2---------------
a-----------------------------------------------------
E-----------------------------------------------------
e------------------------------------------------------
b--5--4--0--1--0--------0-----0--1--0--------1--0------
g--------------------2---------------------------------
d--------------------------2--------------2------------
a------------------------------------------------------
E------------------------------------------------------
repeats 2X after first verse
repeats 4X after second verse
OUTRO
e-----------------------------------
b--8-8---8-8---8-8---8-8---8-8-8-8--
g--0-0---0-0---0-0---0-0---0-0-0-0--
d--x-x---x-x---x-x---x-x---x-x-x-x--
a--7-7---7-7---7-7---7-7---7-7-7-7--
E-----------------------------------
e-----------------------------------
b--8-8---8-8---8-8---8-8---8-8-8-8--
g--0-0---0-0---0-0---0-0---0-0-0-0--
d--x-x---x-x---x-x---x-x---x-x-x-x--
a--6-6---6-6---6-6---6-6---6-6-6-6--
E-----------------------------------
e-----------------------------------
b--8-8---8-8---8-8---8-8---8-8-8-8--
g--0-0---0-0---0-0---0-0---0-0-0-0--
d--x-x---x-x---x-x---x-x---x-x-x-x--
a--5-5---5-5---5-5---5-5---5-5-5-5--
E-----------------------------------
e-----------------------------------
b--8-8---8-8---8-8---8-8---8-8-8-8--
g--0-0---0-0---0-0---0-0---0-0-0-0--
d--x-x---x-x---x-x---x-x---x-x-x-x--
a--x-x---x-x---x-x---x-x---x-x-x-x--
E--8-8---8-8---8-8---8-8---8-8-8-8--
repeat as necessary
SOLO(3:16)
e-----------------------------------
b--12--10--8--10--12--10--8--10-----
g-----------------------------------
d-----------------------------------
a-----------------------------------
e-----------------------------------
e-----------------------------------
b--12--10--8--10--12--10--8--10-----
g-----------------------------------
d-----------------------------------
a-----------------------------------
e-----------------------------------
e--------------------14---------------------
b--10------12---------------12------10--12--
g-------------------------------------------
d-------------------------------------------
a-------------------------------------------
e-------------------------------------------
e--------------17-------------------------17----------
b--13----15---------15----13-----15-----------15---13-
g-----------------------------------------------------
d-----------------------------------------------------
a-----------------------------------------------------
e-----------------------------------------------------
e---------14----15----10-----------
b--12--------------------------12--
g----------------------------------
d----------------------------------
a----------------------------------
e----------------------------------
SECOND SOLO (is repeated going into the fade out)
e-----------------12--
b--12----------------- repeat 4X
g-------14--12--------
d---------------------
a---------------------
e---------------------
e--------10--14-------
b--12----------------- repeat 5X
g---------------------
d---------------------
a---------------------
e---------------------
e--------------------17------14------------
b--13------15------------------------13----
g------------------------------------------
d------------------------------------------
a------------------------------------------
e------------------------------------------
e-----------14------15------10--------------
b--12---------------------------------12----
g-------------------------------------------
d-------------------------------------------
a-------------------------------------------
e-------------------------------------------




Ваше мнение



Капча