Artist: At the Drive-In
Song: Lopsided
Album: In-Casino-Out (1998)
Verse 1:
G|------------------------------------------------|
D|------------------------------------------------|
A|---------2--2-2--2--2-2--2--2-2--2--2-2--5--5-5-|
E|-3--3-3-----------------------------------------|
G|------------------------------------|
D|------------------------------------|
A|------------------------------------|
E|-3--3-3--3--3-3--3--3-3--3--3-3--3--|
G|-----------------------------------------------------|
D|-----------------------------------------------------|
A|--------------2--2-2--2--2-2--2--2-2--2--2-2--5--5-5-|
E|--3-3--3--3-3----------------------------------------|
G|------------------------------------|
D|------------------------------------|
A|------------------------------------|
E|-3--3-3--3--3-3--3--3-3--3--3-3--3--|
G|-----------------------------------------------------|
D|-----------------------------------------------------|
A|--------------2--2-2--2--2-2--2--2-2--2--2-2--5--5-5-|
E|--3-3--3--3-3----------------------------------------|
G|----------------------------------------|
D|----------------------------------------|
A|----------------------------------------|
E|-3--3-3--3--3-3--3--3-3--3--3-3--3--3-3-|
Chorus:
G|--------------------------------------------------------------|
D|---------7----------------------------------------------------|
A|-5-5-5-5--5-5-5-------------------------2-------2-2-2-2-2-2-2-|
E|----------------3-3-3--3------0-0-0-0-0---0-0-0---------------| (x2)
Verse 2:
G|------------------------------------------------|
D|------------------------------------------------|
A|---------2--2-2--2--2-2--2--2-2--2--2-2--5--5-5-|
E|-3--3-3-----------------------------------------|
G|------------------------------------|
D|------------------------------------|
A|------------------------------------|
E|-3--3-3--3--3-3--3--3-3--3--3-3--3--|
G|-----------------------------------------------------|
D|-----------------------------------------------------|
A|--------------2--2-2--2--2-2--2--2-2--2--2-2--5--5-5-|
E|--3-3--3--3-3----------------------------------------|
G|------------------------------------|
D|------------------------------------|
A|------------------------------------|
E|-3--3-3--3--3-3--3--3-3--3--3-3--3--|
G|-----------------------------------------------------|
D|-----------------------------------------------------|
A|--------------2--2-2--2--2-2--2--2-2--2--2-2--5--5-5-|
E|--3-3--3--3-3----------------------------------------|
G|----------------------------------------|
D|----------------------------------------|
A|----------------------------------------|
E|-3--3-3--3--3-3--3--3-3-3-3-3-3-3-3-3-3-|
Chorus:
G|--------------------------------------------------------------|
D|---------7----------------------------------------------------|
A|-5-5-5-5--5-5-5-------------------------2-------2-2-2-2-2-2-2-|
E|----------------3-3-3--3------0-0-0-0-0---0-0-0---------------| (x4)
Interlude:
G|-----------------7----------------------------------------|
D|-------7-------7---7--------------------------------------|
A|-5-5-5---5-5-5-------5-5--2--2-2--2--2-2--0--0-0--0--0-0--|
E|----------------------------------------------------------| (x4)
G|---------------------------------------------------|
D|---------------------------------------------------|
A|------5---5-------5---5-------5---5-------5---5----|
E|-3--3---3----3--3---3----3--3---3----3--3---3---3--|
Last Chorus:
G|--------------------------------------------------------------|
D|---------7----------------------------------------------------|
A|-5-5-5-5--5-5-5-------------------------2-------2-2-2-2-2-2-2-|
E|----------------3-3-3--3------0-0-0-0-0---0-0-0---------------| (x3)
G|------------------------|
D|------------------------|
A|------------------------|
E|-10--9--7--5--3--2--0--2|
G|-------------------------------------------------------------|
D|-------------------------------------------------------------|
A|-2-2-2-2-2-2-2-2-2-2-2-2-2-5-5-5-5-5-------------------------|
E|-------------------------------------3-3-3-3-3-3-3-3-3-3-3-3-| (x4)
G|-----|
D|-----|
A|--2~-|
E|-----|




Ваше мнение



Капча