Artist: At the Drive-In
Song: For Now...We Toast
Album: In-Casino-Out (1998)
Tuning: E-A-D-G
Verse 1:
G|---------------------------|
D|---------------------------|
A|-7-7-7---------9-9-9-7-7-7-|
E|-------7-7-7-7-------------| (x6)
Chorus:
G|--------------------------------|
D|--------------------------------|
A|------------------------2-2-0-0-|
E|-5--5-2-2--3--3-3-3-3-3---------| (x2)
Verse 2:
G|---------------------------|
D|---------------------------|
A|-7-7-7---------9-9-9-7-7-7-|
E|-------7-7-7-7-------------| (x6)
Chorus:
G|--------------------------------|
D|--------------------------------|
A|------------------------2-2-0-0-|
E|-5--5-2-2--3--3-3-3-3-3---------| (x3)
G|-------------------------|
D|-------------------------|
A|-------------------------|
E|-5--5-2-2--3--3-3-3-3-3--| (x1)
Interlude:
G|--------------------------------------------------------------------|
D|--------------------------------------------------------------------|
A|-5-5-5-5-5-5-5-7-7-7-7-7-7-7----------------------------------------|
E|-----------------------------8-8-8-8-8-8-8-8-8-7-7-7-7-7-5-5-5-5-5--| (x3)
Chorus:
G|--------------------------------|
D|--------------------------------|
A|------------------------2-2-0-0-|
E|-5--5-2-2--3--3-3-3-3-3---------| (x3)
G|-------------------------|
D|-------------------------|
A|-------------------------|
E|-5--5-2-2--3--3-3-3-3-3--| (x1)




Ваше мнение



Капча