Artist: At the Drive-in
Song: Enfilade
Album: Relationship Of Command
Tabbed by: Jeremy [email protected]

intro
weird wah effect
e-----------------------------|
b-----------------------------|
Gu2 g-----------------------------|
d-----------------------------|
a-2---------------5-----4-----|
E-----------------------------|

____
intro cont.
the following notes are all played with a fast picking style
and are all natural harmonics. I haven't written it down like 1919191919,
because it eds up looking crappyS

e--------|--------|-----19|-19-----|--------|--------|--------|--------|
b-19-----|-19-----|-------|--------|-19-----|-19-----|--------|--------|
Gu1 g--------|--------|-19----|--------|--------|--------|-19-----|--------|
d--------|--------|-------|--------|--------|--------|--------|---19---|
a--------|--------|-------|--------|--------|--------|------16|--------|
E--------|--------|-------|--------|--------|--------|--------|--------|

Gu2 enters at the same time as cedric with
also natural harmonics, but not a fast picking style

e-------------------|----------19--------|
b-------------------|---------------19---|
Gu2 g-19-----19-----19--|---19--19-----------|
d-------------------|--------------------|
a---16-16--16-16--16|-16--16-------------|
E-------------------|--------------------|
every other pregression, he uses a whammy bar or something to
bend the harmonics of an A chord

________________________
lead into the chorus
*****not natural harmonics any more

you could just play whatever the hell you like, but I've tabbed out a bit of the
weird improvised bar that leads into the chorus

e--------------------------------------------------------5-----------|
b-------------------------------------------------7------7-----------|
Gu1 g--------------7--------7--------7--------------------------8--7-----|
d---6----4---8----7-------7-----6------6-------------------------6-5-|
a-7----5-------------6--------57---5-7----5---(5)-----5--------------|
E---------------------------------------------------6----------------|

___________________________
Chorus

e--------------|--------------|---------------|-----------------|
b--------------|--------------|---------------|-----------------|
Gu1 g--------------|--------------|---------------|-----------------|
d-9--7-9--X--5-|-X-5-5-X-5-5--|-2---2---2---2-|-2-9-9-9-7-9-9-X-|
a-9--7-9--X--5-|-X-5-5-X-5-5--|-2---2---2---2-|-2-7-7-7-5-7-7-X-|
E-7--5-7--X--3-|-X-3-3-X-3-3--|-0---0---0---0-|-2-------------X-|

fast picking style but not natural harmonics
the 19 in brackets is what to play every other pregession instead of the 17
e----------(19)|--------------|---------------|-----------------|
b-19--------17-|-------16-----|-12------------|-12--------------|
Gu2 g--------------|--------------|---------------|-----------------|
d--------------|--------------|---------------|-----------------|
a--------------|--------------|---------------|-----------------|
E--------------|--------------|---------------|-----------------|

____________________________
bit after 2nd chorus

e---------------|
b-------14------|
Gu1 g----11---------|
d-14------------|
a---------------|
E---------------|

then...
fast picking style but not natural harmonics
e--------------|--------------|x3 |---------------|-----------------|
b-22--------21-|-------19-----| |-17------------|-12--------------|
Gu1 g--------------|--------------| |---------------|-----------------|
d--------------|--------------| |---------------|-----------------|
a--------------|--------------| |---------------|-----------------|
E--------------|--------------| |---------------|-----------------|




Ваше мнение



Капча