Artist: At the Drive-In
Song: Alpha Centauri
Album: In-Casino-Out (1998)
Notes:
~ - Let Ring
Verse 1:
G|------------------------------------------------------------------------------|
D|------------------------------------------------------------------------------|
A|-----7-7-7-7-7-7-7------7-7-7-7-7-7-7------7-7-7-7-7-7-7------5-5-5-5-5-5--5-5|
E|-5-7----------------5-7----------------5-7----------------5-7-----------------|

G|-------------------------------------------------------------------------------|
D|-------------------------------------------------------------------------------|
A|--7-7-7-7-7-7-7-7------7-7-7-7-7-7-7-7------7-7-7-7-7-7-7-7------5-5-5-5-5-5-5-|
E|-------------------5-7------------------5-7------------------5-7---------------|
Chorus:
G|-------------------------------------------|
D|-------------------------------------------|
A|-4-4--4-4--4-4--4-4-4-3-3--3-3--3-3--3-3-3-|
E|-------------------------------------------| (x2)
Verse 2:
G|------------------------------------------------------------------------------|
D|------------------------------------------------------------------------------|
A|-----7-7-7-7-7-7-7------7-7-7-7-7-7-7------7-7-7-7-7-7-7------5-5-5-5-5-5--5-5|
E|-5-7----------------5-7----------------5-7----------------5-7-----------------|

G|-------------------------------------------------------------------------------|
D|-------------------------------------------------------------------------------|
A|--7-7-7-7-7-7-7-7------7-7-7-7-7-7-7-7------7-7-7-7-7-7-7-7------5-5-5-5-5-5-5-|
E|-------------------5-7------------------5-7------------------5-7---------------|
Interlude:
G|-----------------------------------------------------------------------|
D|-----------------------------------------------------------------------|
A|-5-5-5-5-5-5-5-5-5-5-5-5-2-2-2-2-2-2-2-2-2-2-2-0-0-0-0-0-0-0-0-0-0-0-0-|
E|-----------------------------------------------------------------------|
G|-----------------------|
D|-----------------------|
A|-----------------------|
E|-3-2-3-2-32-3-2-3-2-32-| (x3)
Verse 3: Same as Verse 1
Chorus: (x3)
Outro:
G|-------------------------------------------------|
D|-------------------------------------------------|
A|-0--0-0--0-0-0--3-3-2-2--0--0-0--0-0-0--3-3-2-2--|
E|-------------------------------------------------| (x3)
G|-----------------------|
D|-----------------------|
A|-0----3-2----0---3-2---|
E|-----------------------| (x2)
G|---------------|
D|---------------|
A|-0~----3~-2~---|
E|---------------| (x5)




Ваше мнение



Капча