Artist: At the Drive-In
Song: A Devil Among the Tailors
Album: In-Casino-Out (1998)
Tuning: E-A-D-G
Notes:
h - Hammer-On
p - Pull-Off
~ - Let Ring
Verse 1:
G|---------------------------|
D|---------------------------|
A|-5--5-5--5-2-2-2-2-2-2-2-2-|
E|---------------------------| (x6)
Chorus:
G|--------------------------------|
D|--------------------------------|
A|-----------6---------------8----|
E|-1--1-4--4---4---3--3-6--6---6--| (x1)
G|---------------------------------|
D|---------------------------------|
A|-----------6---------------1-----|
E|-1--1-4--4---4---3-3-3-1-3---3-1-| (x1)
G|--------------------------------|
D|--------------------------------|
A|-----------6---------------8----|
E|-1--1-4--4---4---3--3-6--6---6--| (x2)
Verse 2:
G|---------------------------|
D|---------------------------|
A|-5--5-5--5-2-2-2-2-2-2-2-2-|
E|---------------------------| (x4)
Chorus: (x2) Second time bass is alone
Verse 3:
G|---------------------------|
D|---------------------------|
A|-5--5-5--5-2-2-2-2-2-2-2-2-|
E|---------------------------| (x4)
Interlude:
G|------------------------------------------------------|
D|------------------------------------------------------|
A|-5-5--5-5--5-5----------------------------------------|
E|---------------5-5--5--5--4-4--4-4--4-4-7-7--7p5h7p5--| (x2)
G|---------------------------------------------------|
D|---------------------------------------------------|
A|-5--5-5--5-5-5-------------------------------------|
E|---------------5-5--5--5--4--4-4--4-4-4--7-7--7--7-| (x1)
G|------------------------------------------------------|
D|------------------------------------------------------|
A|-5-5--5-5--5-5----------------------------------------|
E|---------------5-5--5--5--4-4--4-4--4-4-7-7--7p5h7p5--| (x1)
G|---------------------------------------------------|
D|---------------------------------------------------|
A|-5--5-5--5-5-5-------------------------------------|
E|---------------5-5--5--5--4--4-4--4-4-4--7-7--7--7-| (x2)
Verse 4:
G|---------------------------|
D|---------------------------|
A|-5--5-5--5-2-2-2-2-2-2-2-2-|
E|---------------------------| (x8)
End on:
G|----|
D|----|
A|-7~-|
E|----|




Ваше мнение



Капча