Song: ONLY TIME WILL TELL (bass tab)
Artist: ASIA
Tabbed by: FER MADRID
STANDARD TUNING
TIME SIGNATURE 4/4

INTRO (no bass)
Synth riff
G|----------------|----------------|----------------|----------------|
D|-------R--------|-------E--------|-------S--------|-------T--------|
A|----------------|----------------|----------------|----------------|
E|----------------|----------------|----------------|----------------|
1 2 3 4 1 2 3 4 1 2 3 4 1 2 3 4

G|----------------|-----------------|----------------|----------------|
D|----------------|-----------------|----------------|----------------|
A|----------------|-----------------|----------------|----------------|
E|-5--------------|-5-------3-----1-|-0-0------------|-1-------3------|
1 2 3 4 1 2 3 4 + 1 + 2 3 4 1 2 3 4

G|----------------|-----------------|----------------|----------------|
D|----------------|-----------------|----------------|----------------|
A|----------------|-----------------|----------------|----------------|
E|-5--------------|-5-------3-----1-|-0-0------------|-1--------------|
1 2 3 4 1 2 3 4 + 1 + 2 3 4 1 2 3 4

G|----------------|----------------|
D|----------------|----------------|
A|----------------|----------------|
E|-1-(let ring)---|----------------|
1 2 3 4 1 2 3 4

1st & 2nd VERSE
You're leavinґ...
G|----------------|---------------12-|----------------|---------------9-|
D|-10-------------|------------------|-10-------------|-----------------|
A|----------------|------------------|----------------|-----------------|
E|----------------|------------------|----------------|-----------------|
1 2 3 4 1 2 3 4 + 1 2 3 4 1 2 3 4 +

G|----------------|---------------9-|----------------|------------------|
D|-7--------------|-----------------|-7--------------|---------------10-|
A|----------------|-----------------|----------------|------------------|
E|----------------|-----------------|----------------|------------------|
1 2 3 4 1 2 3 4 + 1 2 3 4 1 2 3 4 +

G|----------------|----------------|----------------|-----------------|
D|----------------|----------------|----------------|-----------------|
A|-8--------------|---------8---7--|-5--------------|-----------------|
E|----------------|----------------|----------------|---0---1---3---3-|
1 2 3 4 1 2 3 4 1 2 3 4 1 + 2 + 3 + 4 +

G|----------------|----------------|----------------|----------------|
D|----------------|----------------|----------------|----------------|
A|-3---3---3---3--|-3---3---3---3--|-3---3---3---3--|-3---3---3---2--|
E|----------------|----------------|----------------|----------------|
1 2 3 4 1 2 3 4 1 2 3 4 1 2 3 4

G|----------------|----------------|----------------|----------------|
D|----------------|----------------|----------------|----------------|
A|----------------|----------------|----------------|----------------|
E|-5---5---5---5--|-5---5---5---5--|-5---5---5---5--|-5---5---5---3--|
1 2 3 4 1 2 3 4 1 2 3 4 1 2 3 4

G|----------------|----------------|----------------|-----------------|
D|----------------|----------------|----------------|-----------------|
A|----------------|----------------|-5---5---5---5--|-----------------|
E|-1---1---1---1--|-1---1---1---0--|----------------|---0---1---3---X-|
1 2 3 4 1 2 3 4 1 2 3 4 1 + 2 + 3 + 4 +

1st CHORUS

G|----------------|----------------|----------------|----------------|
D|----------------|----------------|----------------|----------------|
A|----------------|----------------|----------------|----------------|
E|-5---5---5---5--|-5---5---3---3--|-0---0---0---0--|-1---1---1---1--|
1 2 3 4 1 2 3 4 1 2 3 4 1 2 3 4

G|----------------|----------------|----------------|----------------|
D|----------------|----------------|----------------|----------------|
A|----------------|----------------|----------------|----------------|
E|-5---5---5---5--|-5---5---3---3--|-0---0---0---0--|-1---1---1---1--|
1 2 3 4 1 2 3 4 1 2 3 4 1 2 3 4

G|----------------|----------------|----------------|-----------------|
D|----------------|----------------|----------------|-----------------|
A|----------------|----------------|----------------|-----------------|
E|-1---1---1---1--|-3---3---3---3--|-3---3---3---3--|-55---5---55---5-|
1 2 3 4 1 2 3 4 1 2 3 4 1e + 2 3e + 4

G|-----------------|----------------|----------------|
D|-----------------|----------------|----------------|
A|-----------------|----------------|----------------|
E|-55---5---55---5-|-3---3---3---3--|-3---3---3---3--|
1e + 2 3e + 4 1 2 3 4 1 2 3 4

3rd VERSE
Only time will tell...
G|----------------|----------------|----------------|----------------|
D|----------------|----------------|----------------|----------------|
A|-3---3---3---3--|-3---3---3---3--|-3---3---3---3--|-3---3---3---2--|
E|----------------|----------------|----------------|----------------|
1 2 3 4 1 2 3 4 1 2 3 4 1 2 3 4

G|----------------|----------------|----------------|----------------|
D|----------------|----------------|----------------|----------------|
A|----------------|----------------|----------------|----------------|
E|-5---5---5---5--|-5---5---5---5--|-5---5---5---5--|-5---5---5---3--|
1 2 3 4 1 2 3 4 1 2 3 4 1 2 3 4

G|----------------|----------------|----------------|-----------------|
D|----------------|----------------|----------------|-----------------|
A|----------------|----------------|-5---5---5---5--|-----------------|
E|-1---1---1---1--|-1---1---1---0--|----------------|---0---1---3---X-|
1 2 3 4 1 2 3 4 1 2 3 4 1 + 2 + 3 + 4 +

INTRO (reprise)

G|----------------|-----------------|----------------|----------------|
D|----------------|-----------------|----------------|----------------|
A|----------------|-----------------|----------------|----------------|
E|-5--------------|-5-------3-----1-|-0-0------------|-1-------3------|
1 2 3 4 1 2 3 4 + 1 + 2 3 4 1 2 3 4

G|----------------|-----------------|----------------|----------------|
D|----------------|-----------------|----------------|----------------|
A|----------------|-----------------|----------------|----------------|
E|-5--------------|-5-------3-----1-|-0-0------------|-1---1---3---3--|
1 2 3 4 1 2 3 4 + 1 + 2 3 4 1 2 3 4

2nd CHORUS

G|----------------|----------------|----------------|----------------|
D|----------------|----------------|----------------|----------------|
A|----------------|----------------|----------------|----------------|
E|-5---5---5---5--|-5---5---3---3--|-0---0---0---0--|-1---1---1---1--|
1 2 3 4 1 2 3 4 1 2 3 4 1 2 3 4

G|----------------|----------------|----------------|----------------|
D|----------------|----------------|----------------|----------------|
A|----------------|----------------|----------------|----------------|
E|-5---5---5---5--|-5---5---3---3--|-0---0---0---0--|-1---1---1---1--|
1 2 3 4 1 2 3 4 1 2 3 4 1 2 3 4

G|----------------|
D|----------------|
A|----------------|
E|-1---1---1---1--|
1 2 3 4

INTERLUDE

G|----------------|----------------|----------------|----------------|
D|----------------|----------------|----------------|----------------|
A|-3--------------|---------3---2--|-1--------------|----------------|
E|----------------|----------------|----------------|----------------|
1 2 3 4 1 2 3 4 1 2 3 4 1 2 3 4

G|----------------|----------------|-----------------|----------------|
D|----------------|----------------|-----------------|----------------|
A|----------------|----------------|-----------------|----------------|
E|-4--------------|----------------|-3-3-3-3-3-3-3-3-|-3-3-3-3-3-3-3--|
1 2 3 4 1 2 3 4 1 2 3 4 1 2 3 4

3rd CHORUS

G|----------------|----------------|----------------|----------------|
D|----------------|----------------|----------------|----------------|
A|-3-(let ring)---|----------------|----------------|----------------|
E|----------------|----------------|----------------|----------------|
1 2 3 4 1 2 3 4 1 2 3 4 1 2 3 4

G|----------------|----------------|----------------|----------------|
D|----------------|----------------|----------------|----------------|
A|-0-(let ring)---|----------------|----------------|---------0------|
E|----------------|----------------|----------------|-------------3--|
1 2 3 4 1 2 3 4 1 2 3 4 1 2 3 4

G|----------------|----------------|----------------|-----------------|
D|----------------|----------------|----------------|-----------------|
A|----------------|----------------|-5---5---5---5--|-----------------|
E|-1---1---1---1--|-1---1---1---0--|----------------|---0---1---3---X-|
1 2 3 4 1 2 3 4 1 2 3 4 1 + 2 + 3 + 4

4th VERSE

Only time will tell...
G|----------------|----------------|----------------|----------------|
D|----------------|----------------|----------------|----------------|
A|-3---3---3---3--|-3---3---3---3--|-3---3---3---3--|-3---3---3---2--|
E|----------------|----------------|----------------|----------------|
1 2 3 4 1 2 3 4 1 2 3 4 1 2 3 4

G|----------------|----------------|----------------|----------------|
D|----------------|----------------|----------------|----------------|
A|----------------|----------------|----------------|----------------|
E|-5---5---5---5--|-5---5---5---5--|-5---5---5---5--|-5---5---5---3--|
1 2 3 4 1 2 3 4 1 2 3 4 1 2 3 4

G|----------------|----------------|----------------|-----------------|-----------------|
D|----------------|----------------|----------------|-----------------|-----------------|
A|----------------|----------------|-5---5---5---5--|-----------------|-----------------|
E|-1---1---1---1--|-1---1---1---0--|----------------|---0---1---3---X-|---0---1---3---X-|
1 2 3 4 1 2 3 4 1 2 3 4 1 + 2 + 3 + 4 + 1 + 2 + 3 + 4 +

4th CHORUS

G|----------------|----------------|----------------|----------------|
D|----------------|----------------|----------------|----------------|
A|----------------|----------------|----------------|----------------|
E|-5---5---5---5--|-5---5---3---3--|-0---0---0---0--|-1---1---1---1--|
1 2 3 4 1 2 3 4 1 2 3 4 1 2 3 4

G|----------------|----------------|----------------|----------------|
D|----------------|----------------|----------------|----------------|
A|----------------|----------------|----------------|----------------|
E|-5---5---5---5--|-5---5---3---3--|-0---0---0---0--|-1---1---1---1--|
1 2 3 4 1 2 3 4 1 2 3 4 1 2 3 4

G|----------------|----------------|----------------|-----------------|
D|----------------|----------------|----------------|-----------------|
A|----------------|----------------|----------------|-----------------|
E|-1---1---1---1--|-3---3---3---3--|-3---3---3---3--|-55---5---55---5-|
1 2 3 4 1 2 3 4 1 2 3 4 1e + 2 3e + 4

G|-----------------|----------------|----------------|
D|-----------------|----------------|----------------|
A|-----------------|----------------|----------------|
E|-55---5---55---5-|-3---3---3---3--|-3---3---3---3--|
1e + 2 3e + 4 1 2 3 4 1 2 3 4

FINAL VERSE

Only time will tell...
G|-----------------|----------------|----------------|----------------|
D|*----------------|----------------|----------------|----------------|
A|*-3---3---3---3--|-3---3---3---3--|-3---3---3---3--|-3---3---3---2--|
E|-----------------|----------------|----------------|----------------|
1 2 3 4 1 2 3 4 1 2 3 4 1 2 3 4

G|----------------|----------------|----------------|----------------|
D|----------------|----------------|----------------|----------------|
A|----------------|----------------|----------------|----------------|
E|-5---5---5---5--|-5---5---5---5--|-5---5---5---5--|-5---5---5---3--|
1 2 3 4 1 2 3 4 1 2 3 4 1 2 3 4

G|----------------|----------------|----------------|------------------|
D|----------------|----------------|----------------|-----------------*|
A|----------------|----------------|-5---5---5---5--|-----------------*|
E|-1---1---1---1--|-1---1---1---0--|----------------|---0---1---3---X--|
1 2 3 4 1 2 3 4 1 2 3 4 1 + 2 + 3 + 4 +

(repeat and fade out)

ANY COMMENTS AT: [email protected]




Ваше мнение



Капча