Band - Ash
Song - Orpheus
Album - Meltdown
Tuning - Standard

Intro part 1 - Both Guitars

e:----------------------------------:
b:----------------------------------:
g:----------------------------------:
d:----------------------------------:
a:-7-5-7-5-7-5-7-5-7-5-7-5----------: x how many time
E:-------------------------7-6-5-3--:

Intro Part 2 - Both Guitars

e:-----------------------:
b:-----------------------:
g:-9-7---7-9-9~----------: Repeat as many times needed
d:-9-7-9-7-9-9~-7-5-4-2--:
a:-7-5-9-5-7-7~-7-5-4-2--:
E:-----7--------5-3-2-0--:

Think thats it, Email me with corrections
[email protected]





Ваше мнение



Капча