Song: Nicole
Band: Ash
Album: Free All Angels

Key:
h=Hammer
po=pull off
gb=gradual bend

Chords: E a d g b e

Bb 6 8 8 7 6 6
D x 5 7 7 7 5
Gm 3 5 5 3 3 3
Eb x 6 8 8 8 6
Cm x 3 5 5 4 3
F 1 3 3 2 1 1

This is the main riff and it is played over the chorus chords
(see below)

Riff A:
this riff is x2

e-----------------------------------------------------|
b-----------------------------------------------------|
g-----------------7gb-----------------------------7gb-|
d-----------------------------------------------------|
a-5h6po5---6-8-6-5--------5h6po5---6-8-6-5-5h6po5-----|
E--------6-----------------------6--------------------|

Riff B:
this riff is also x2. At the end of the second time, there is one
strum of Bb

e---------------------------------------------------|
b---------------------------------------------------|
g---------------------------------------------------|
d---------------------------------------------------|
a-5h6po5---6-8-6-5-5h5po5-5-----6-6---5---6-6---5---|
E--------6------------------8-6-----8---8-----8---8-|

Verse 1:
Riff C:
n.c
Guilt and pain, haunting me every day a-5h6po5--
(play lots of until Riff D)
Crushing me and i cant get away, killing my heart and soul
Riff C
Oh my Nicole..ole..ole..ole..ole

Still i dont know what to say

I'm tortured every night and day

It isn't in my control

Riff D:

a-----1---3-----1---4-4-3-|
E-1-3---3---1-3---3-------|

Chorus 1:

Bb D Gm
I said no
Eb Cm Eb Cm
I killed my baby but i loved her
Bb D Gm
I said no no no
Eb Cm Eb Cm
I killed my baby but i loved her
Bb D Gm
I said no
Eb Cm Eb Cm
I killed my baby but i loved her
Bb D Gm
I said no no no
Eb Cm Eb Cm
I killed my baby but i loved her, I killed my baby but i

Riff B x1

Verse 2: (as verse 1)

Chorus 2: (as chorus 1)

Verse 3: (from end of chorus 2)

Cm
I killed my baby but i loved her
Eb Gm
It's still haunting me night and day (oh my Nicole)
F Cm
You took a part of my life away (oh my Nicole)
Eb Gm F
I relive it every day (oh my Nicole, Oh my Nicole...)

Chorus 3:

Bb D Gm
I said no
Eb Cm Eb Cm
I killed my baby but i loved her
Bb D Gm
I said no no no
Eb Cm Eb
I killed my baby but i loved her
Cm Eb Cm Eb
I killed my baby but i loved her
Cm
I killed my baby but i

Riff B x 2

Riff D: (add to end of second time of riff b)

a-6-6---5---6-6---5---|
E-----8---8-----8---8-|

Finish on Bb

Additional Lyrics:

Verse 2:

Snowy skies, far away still alive

The scars are healing in your mind, in your heart and soul

Oh my Nicole..ole..ole..ole..ole

I'm starting to realise, the fatal secret of my life

It isn't in my control

Enjoy! Dan





Ваше мнение



Капча