Date: Tue, 29 Aug 1995 18:02:12 +0100
From: (Thomas Horan)
By ASH
VERSE:
E---------------------------
B---------------------------
G-9-9----------9-9----------
D-9-9-9-9-9----9-9--7-7-7-7-
A-7-7-9-9-9----7-7--7-7-7-7-
E-----7-7-7---------5-5-5-5-
CHORUS:
E-------------------------
B-------------------------
G----6--6-6-6----8--8-8-8-
D-6--6--6-6-6-8--8--8-8-8-
A-6--4--4-4-4-8--6--6-6-6-
E-4-----------6-----------
Repeat this and then add this bit on the end
E------------------------
B------------------------
G-9----11----------------
D-9-9--11--11-11-11-11---
A-7-9--9---11-11-11-11---
E---7------9--9--9--9----
Thomas Horan

-----------------------------------------------------------------------
\__/ \__/ \__/ \__/ \__/ \__/ \__/
(oo) (o-) (@@) (xx) (--) ( ) (OO)
//||\\ //||\\ //||\\ //||\\ //||\\ //||\\ //||\\
Bug bug bug/w dead bug blind bug after
Winking hangover bug sleeping bug seeing a
Female
[email protected] bug
-----------------------------------------------------------------------





Ваше мнение



Капча