#-----------------------------PLEASE NOTE-------------------------------------#
#This OLGA file is the author's own work and represents their interpretation #
#of the song. You may only use this file for private study, scholarship, or #
#research. Remember to view this file in Courier, or other monospaced font. #
#See http://www.olga.net/faq/ for more information. #
#-----------------------------------------------------------------------------#
Subject: a/ash/gone_the_dream.crd
Gone The Dream
by Ash
On Album 1977
Transcription by Ben Wampler (http://pwrtc.com/~tacoboy)
You can do whatever you want with this tab, just please give credit
where it is due!
Intro:
G F E
---------------------------------||----| e
---------------------------------||----| B
----4-------2-----1--------------||----| G
----5-------3-----2--------------||----| D
----5-------3-----2--------------||----| A
-3-----3-1----1-0----------------||----| E
Repeat once
G F E
At the end of the day when all the ?????
C G
and all have been said
G F E C G
In the kitchen, laughing with you before I went to bed
G F E C G
Your face in the light, illuminated, ???????
G F E C G
As your face is shining upon me, a love that would never cease.
Bm Dm Am G Dm
And up where the cold wind blows, it rocks my childhood sleep
Bm Dm Am G Dm
And up in the starry skies that never rock to sleep
Bm Dm Am G Dm
Late in time when it will come, i see it in my dreams
Bm Dm
At night with the cold wind blowing
F C? C
At night with the cold wind blowing, I sigh
F G
Gone the dream, it's all faded now
F G C
Gone the dream, it's all faded now, take me home
*kickass solo*
I only had time to write the starting notes, but the rest
is really simple! =v]
e ---------------------------------------------------------------|
A ---------------------------------------------------------------|
D ---------------------------------------------------------------|
G ---------------8---8-------------------------------------------|
B --7^-7^-7^-7-5---5---------------------------------------------|
E ---------------------------------------------------------------|

Hours pass, taken slowly, lying wide awake.
All across the land, the light it's all up under an open sky
I feel for you and everybody dreaming in their beds
I feel lost, there is nothing, nothing more to miss.
Going out where the cold wind blows it rocks my childhood sleep
And up in the starry skies that never rock to sleep
Late in time when it will come, i see it in my dreams
At night with the cold wind blowing





Ваше мнение



Капча