Girl From Mars
Ash

Intro/Chorus:
------------------
------------------
-----9-x-7--------
-7-7-9-x-7-9-9----
-7-7-7-x-5-9-9----
-5-5-------7-7----

Bridge:
------------------
------------------
------------------
-7-7-7-7----------
-7-7-7-7----------
-5-5-5-5----------

Verse:
------------------------------------
------------------------------------
-----9-x-7------7-7-7-9-9-9---------
-7-7-9-x-7-9-9--7-7-7-9-9-9---------
-7-7-7-x-5-9-9--5-5-5-7-7-7---------
-5-5-------7-7----------------------

Thomas Horan





Ваше мнение



Капча