Artist: Ash
Album: Meltdown
Song: Evil Eye
intro:
e-5-----5-----5-----5----5----5-----5-----5-----5---|
b---6-----6-----6-----6----6----6-----6-----6-----6-|
g-----7-----7-----------5----5----------6-----6-----|
D---------------------------------------------------|
A---------------------------------------------------|
E---------------------------------------------------|
Verse:
e-5-----5-----5-----5----5----5-----5-----5-----5---|
b---6-----6-----6-----6----6----6-----6-----6-----6-|
g-----7-----7-----------5----5----------6-----6-----|
D---------------------------------------------------|
A---------------------------------------------------|
E---------------------------------------------------|
e-5-----5-----5-----5----5----5-----5-----5-----5---|
b---6-----6-----6-----6----6----6-----6-----6-----6-|
g-----7-----7-----------5----5----------6-----6-----|
D---------------------------------------------------|
A---------------------------------------------------|
E---------------------------------------------------|
e-5-----5-----5-----5----5----5-----5-----5-----5---|
b---6-----6-----6-----6----6----6-----6-----6-----6-|
g-----7-----7-----------5----5----------6-----6-----|
D---------------------------------------------------|
A---------------------------------------------------|
E---------------------------------------------------|
e-5-----5-----5-----5----5----5-----5-----5-----5---|
b---6-----6-----6-----6----6----6-----6-----6-----6-|
g-----7-----7-----------5----5----------6-----6-----|
D---------------------------------------------------|
A---------------------------------------------------|
E---------------------------------------------------|
Short Bridge:
END OF SONG ONLY!
e----------------- |-----------------|
b----------------- |-----------------|
g----------------- |-----------------|
D----------------- |-----------------|
A-7/8/7/8/7/8/7/8- |-7/8/7/8/7/8/7/8-|
E-5/6/5/6/5/6/5/6- |-5/6/5/6/5/6/5/6-|
Chorus:
e-6-6-6--6--6-6-------------------5-5-5--5--5-5--5-5-5--5--5-5-|
b-6-6-6--6--6-6--101010-10--1010--5-5-5--5--5-5--6-6-6--6--6-6-|
g-7-7-7--7--7-7--101010-10--1010--6-6-6--6--6-6--7-7-7--7--7-7-| x3
D-8-8-8--8--8-8--8-8-8--8---8-8---7-7-7--7--7-7--7-7-7--7--7-7-|
A-8-8-8--8--8-8--8-8-8--8---8-8---7-7-7--7--7-7--5-5-5--5--5-5-|
E-6-6-6--6--6-6--8-8-8--8---8-8---5-5-5--5--5-5--5-5-5--5--5-5-|
e-6-6-6--6--6-6-------------------5-5-5--5--5-5---------------|
b-6-6-6--6--6-6--101010-10--1010--5-5-5--5--5-5---------------|
g-7-7-7--7--7-7--101010-10--1010--6-6-6--6--6-6---------------|
D-8-8-8--8--8-8--8-8-8--8---8-8---7-7-7--7--7-7---------------|
A-8-8-8--8--8-8--8-8-8--8---8-8---7-7-7--7--7-7-7/8/7/8/7/8/7-|
E-6-6-6--6--6-6--8-8-8--8---8-8---5-5-5--5--5-5-5/6/5/6/5/6/5-|
Solo: (play with lots of wah)
e----------------------------------------|
b----------------------------------------|
g----------------------------------------|
D----------------------------------------|
A-3b5r3-0-------3/5---3b5r3-0-------3/5--|
E---------5-3-1---------------5-3-1------|
End Verse Riff
e-------------------------|
b-------------------------|
g-------------------------|
D-5-----5-----5-----5-----|
A---6-----6-----6-----6---|
E-----7-----7-----5-----7-|
Order of play is:
INTRO
VERSE
SHORT BRIDGE
CHORUS
VERSE
SHORT BRIDGE
CHORUS
SOLO
END CHORUS RIFF
CHORUS
SHORT BRIDGE (END OF SONG ONLY!)
Thats it. Enjoy!





Ваше мнение



Капча