envy.tab#----------------------------------PLEASE NOTE---------------------------------#
#This file is the author's own work and represents their interpretation of the #
#song. You may only use this file for private study, scholarship, or research. #
#------------------------------------------------------------------------------##

Title: Envy Intro
Band: Ash
Album: New One Cant Remember The Name
Words: Not Sure
Transcribed By: Danny Reeve
My Email: [email protected]
Parts: Intro
Missing: All except Intro

E|--5---2----------------------------------------------------|
B|--5---2--2---4--4bend--4----2------------------------------|
G|---------2---4--4------4----2------------------------------|
D|-----------------------------------------------------------|
A|-----------------------------------------------------------|
E|-----------------------------------------------------------|

E|--5---2----------------------------------------------------|
B|--5---2--2---4---------------------------------------------|
G|---------2---4---------------------------------------------|
D|-----------------------------------------------------------|
A|-----------------------------------------------------------|
E|-----------------------------------------------------------|

Tell Me Wat U Think!!!





Ваше мнение



Капча