artist:ash
song:clones
album:meltdown

starts of with some pick scrape wah thingy, using harmonics
and stuff quite hard to work that out, but heres the main riff

intro-most of these are pull offs
e------------------------------------------
b------------------------------------------
g------------------------------------------
D------------------------------------------ x4
A--6--3--6--3--6--3----5--3--5--3--5--3----
E------------------------------------------

verse
e------------------------------------------
b------------------------------------------
g------------------------------------------
D------------------------------------------ x4
A--6--3--6--3--6--3----5--3--5--3--5--3----
E------------------------------------------

e------------------------------------------
b------------------------------------------
g--3--0--3--0--3--0----2--0--2--0--2--0----
D------------------------------------------ x4
A------------------------------------------
E------------------------------------------

bridge
e--------------------|
b--------------------|
g--------------------|
D--6---6---8--10-10--|
A--6---6---8--10-10--|
E--4---4---6--8--8---|

chorus
gtr 1 plays chords which i couldnt work out but i think guitar 2 plays this melody with chorus
e-----------------
b--------6--------
g-----5------5----
D--3--------------
A-----------------
E-----------------

hope thats useful!





Ваше мнение



Капча