Tabbed by marcus lubbock
Band - ASH
Song - burn baby burn
Album - free all angels
the bass is just the root notes
H - hammer on
Chords used
B x23332
E 022100/0220xx
C# x46664
f# 244322
A x02220
Am 577xxx
Intro
e--11----11----11----11--11---11----11----H12------------|
b-----12----12----12---12--12----12----12----------------|
g--------------------------------------------------------|
D--------------------------------------------------------|
A--------------------------------------------------------|
E--------------------------------------------------------|
chords over intro
|B| |E| |C#| |F#|
verse X2
part1
|B| |E| |C#| |F#|
part2
|E|
Chrous
|F#| |B| |E| |A|
Chord after the chrous is
|Am|
e--11----11----11----11--11---11----11----H12------------|
b-----12----12----12---12--12----12----12----------------|
g--------------------------------------------------------|
D--------------------------------------------------------|
A--------------------------------------------------------|
E--------------------------------------------------------|
These chords over above
|B| |E| |C#| |F#|
verse X2
part1
|B| |E| |C#| |F#|
part2
|E|
Chrous
|F#| |B| |E| |A|
Chord after the chrous is
|Am|
e-13--12------------------| Repeat 4
b--------11--12-----------| on last repeat slide finger down b string
g--------------11-13-9-11-| to about 19th fret
d-------------------------|
a-------------------------|
e-------------------------|
verse X2
part1
|EM| |F#|
part2
|E|
verse X2
part3
|B| |E| |C#| |F#|
Chrous
|F#| |B| |E| |A|
Chord after the chrous is |AM|
finsih on |Am|
Enjoy ! lubbs





Ваше мнение



Капча