Ash - Burn Baby Burn Intro
Tabbed by - Tom Hand ([email protected])
e|-11----11----11----11-12-
B|----12----12----12-------
G|-------------------------
D|-------------------------
A|-------------------------
E|-------------------------
e|-11----11----11-11-12-11-
B|----12----12-------------
G|-------------------------
D|-------------------------
A|-------------------------
E|-------------------------
Sounds like its right...
Email me if ya can improve





Ваше мнение



Капча