As I Lay Dying
Falling Upon Deaf Ears

Tuning (low to high: cgcfad)

Intro

Gtr.1
|------------------------|
|------------------------|
|------------------------|
|------------------------|
|-0~--0~--0~~~~~~~~~-----|
|-0~--0~--0~~~~~~~~~-----|

Gtr.2
|------------------------------------------------------------------------------|
|------------------------------------------------------------------------------|
|------------------------------------------------------------------------------|
|------------------------------------------------------------------------------|
|-0~--0~--8-7-------------8-7--------------8-7-------------8-7-5-0-10-8-7-0----|
|-0~--0~------0-0-8-7-0-0-----0-0-8-7-5-0------0-0-8-7-0-0---------------------|
PM. - - - - - - - - - -

1st verse is same as intro except this...

Gtrs.1&2
|-------------------------------------------|
|-------------------------------------------|
|-------------------------------------------|
|-------------------------------------------|
|-8-7-------------8-7-----------------------|
|-----0-0-8-7-0-0-----0-0-8888-5555---------|
PM - - - - - - ---- ----

Gtrs.1&2
|-----------------------------------------------------------------|
|-----------3-----------3-----------3-----------3-----------------|
|-----------7-----------7-----------7-----------7-----------------|
|-----------0-----------0-----------0-----------0-----------------|
|-0-0-0-0-0---0-0-0-0-0---0-0-0-0-0---0-0-0-0-0-------------------|
|-0-0-0-0-0---0-0-0-0-0---0-0-0-0-0---0-0-0-0-0-------------------|

Gtr.2 (Gtr.1 continues playing above riff)
|---------------------------------------------------------------|
|---------------------------------------------------------------|
|----10/12-9~--9/10-7-------------------------------------------|
|-----X----X---X----X--Then-at-the-end--------------------------|
|-8~--8/10-7~--7/8--5--Gtr.2-plays-this--8~-10~-7~--------------|
|-8~-------------------------------------8~-10~-7~--------------|

Gtr.1
|-----------------------|
|-----------------------|
|-----------------------|
|-----------------------|
|-0~--5~--8~--7~--------|
|-0~--5~--8~--7~--------|

Gtr.2
|-----------------------------------------|
|-----------------------------------------|
|-----------------------------------------|
|-----------------------------------------|
|-----888877778888-(repeats-this)---------|
|-----------------------------------------|

SOLO!!!!!

Gtr.1
|------------------------0------------------------------------------|
|-5h6p5-----8-6-5-6--5-----------5h6p5-----8-6-5-8/10-8-6-8-6-5-6---|
|-------7-5------------7---7-5~~-------7-5--------------------------|
|-------------------------------------------------------------------|
|-------------------------------------------------------------------|
|-------------------------------------------------------------------|

|------------------------0------------------------------------------------|
|-5h6p5-----8-6-5-6--5----------------------------------------------------|
|-------7-5------------7---7-5~~------------------------------------------|
|--------------------------------------0-3-5-------0-3-5-------0-3-5--5~~-|
|--------------------------------0-3-5-------0-3-5-------0-3-5------------|
|-------------------------------------------------------------------------|
PINCH HARMONIC -




Ваше мнение



Капча