as i lay dying-94 hours
Listen to the song for timing.
D|----------------------------------------------------------------|
A|----------------------------------------------------------------|
F|----------------------------------------------------------------|
C|--------7p0-----5p0----------------------7p0-----5p0------------| (x4)
G|----8p0-----8p0-----8p0-7h8p7--5-----8p0-----8p0-----8p0-777-5--|
C|-0--------------------------------------------------------------|
D|----------------------------------------------------------------|
A|----------------------------------------------------------------|
F|-7p0-10p0-7p0-9p0-7p0-10p0-7p0-9p0-7p0-10p0-7p0-9p0--5----------|
C|-----------------------------------------------------7-----(5)--| (x1)
G|--------------------------------------------------------0-------|
C|--------------------------------------------------------0-------|
PM .
D|----------------------------------------------------------------|
A|----------------------------------------------------------------|
F|----------7p0-10p0-7p0-9p0-------------5------------------------|
C|-0-00-00---------------------0000-00---7-----(5)----------------| (x4)
G|-0-00-00---------------------0000-00------0---------------------|
C|-0-00-00---------------------0000-00------0---------------------|
PM . .. .. .... .. .
D|----------------------------------------------------------------|
A|----------------------------------------------------------------|
F|----------------------------------------------------------------|
C|-0-00-00---0-00-00-0--/--0-00-00--0000-00-------0-00-00—-0--0--0|
G|-0-00-00---0-00-00-0--/--0-00-00--0000-00-(x7)--0-00-00--0—-0--0|
C|-0-00-00---0-00-00-0--/--0-00-00--0000-00-------0-00-00--0--0--0|
PM . .. .. . .. .. . . .. .. .... .. . .. .. . . .
D|----------------------------------------------------------------|
A|----------------------------------------------------------------|
F|----------------------------------------------------------------|
C|--------7p0-----5p0----------------------7p0-----5p0------------| (x4)
G|----8p0-----8p0-----8p0-7h8p7--5-----8p0-----8p0-----8p0-777-5--|
C|-0--------------------------------------------------------------|
Second Guitar
D|----------------------------------------------------------------|
A|----------------------------------------------------------------|
F|------------12-10-9---7--6--------------12-10-9---7--6----------|
C|-0-00-9-10---x-x--x---x--x--0-00--9-10---x-x--x---x--x----------| (x4)
G|-0-00-7-8---10-8--7---5--4--0-00--7-8---10-8--7---5--4----------|
C|-0-00-----------------------0-00--------------------------------|
PM .. ..
First Guitar comes in after
D|-------------------------------------------------------------------------|
A|-------------------------------------------------------------------------|
F|-12-10-9-10-9-------------12-10-9-10------------------9h10p9-------------|
C|-------------12-10-9—(x1)-------------12-10-9-10-12-10------12-10-(x4)---|
G|-------------------------------------------------------------------------|
C|-------------------------------------------------------------------------|
D|----------------------------------------------------------------|
A|----------------------------------------------------------------|
F|----------------------------------------------------------------|
C|-0---0---10--9--5-----------------------------------------------| (x1)
G|-0---0---8---7--3-----------------------------------------------|
C|-0---0----------------------------------------------------------|
D|--------------------------------------------------------------------|
A|--------------------------------------------------------------------|
F|--10-9----12-10-9----12-------10-9----12-10-9--12-10-9----14-12-10-9|
C|-------10---------10-----(x2)------10------------------10-----------| (x5)
G|--------------------------------------------------------------------|
C|--------------------------------------------------------------------|




Ваше мнение



Капча