-##
Date: Thu, 23 Nov 1995 16:58:38 +0000 (GMT)
From: Rich Kent
Subject: TAB: 99 miles from LA by Art Garfunkel
99 Miles From L.A.
------------------
This cool tune is easy to play, Travis pick just as Paul Simon does.
Tabbed and transcribed by Rich Kent [email protected]
Intro
-----
Cmaj7
, . , . , . , . , . , . , . , . , . , . , . , . , . , . , . , .
|-0---------0-----|-0---------0-----|-----------0-----|-0---------0-----|
|-------0---------|-------0---------|-------0---------|-------0---------|
|-----0-------0---|-----0-------0---|-----0-------0---|-----0-------0---|
|-----------------|-----------------|-----------------|-----------------|
|-3-------3-------|-3-------3-------|-3-------3-------|-3-------3-------|
|-----------------|-----------------|-----------------|-----------------|
Verse 1
-------
, . , . , . , . , . , . , . , . , . , . , . , . , . , . , . , .
|-0---------0-----|-0---------0-----|-0---------0-----|-0---------0-----|
|-------0---------|-------0---------|-------0---------|-------0---------|
|-----0-------0---|-----0-------0---|-----0-------0---|-----0-------0---|
|-----------------|-----------------|-----------------|-----------------|
|-3-------3-------|-3-------3-------|-3-------3-------|-3-------3-------|
|-----------------|-----------------|-----------------|-----------------|
Keeping my eyes on the road I
B
, . , . , . , . , . , . , . , . , . , . , . , . , . , . , . , .
|-----------------|-----------------|-----------------|-----------------|
|-4---------4-----|-4---------4-----|-----------4-----|-4---------4-----|
|-------4---------|-------4---------|-------4---------|-------4---------|
|-----4-------4---|-----4-------4---|-----4-------4---|-----4-------4---|
|-2-------2-------|-2-------2-------|-2-------2-------|-2-------2-------|
|-----------------|-----------------|-----------------|-----------------|
see you.
Bbmaj7
, . , . , . , . , . , . , . , . , . , . , . , . , . , . , . , .
|-----------------|-----------------|-----------------|-----------------|
|-3---------3-----|-3---------3-----|-----------3-----|-3---------3-----|
|-------2---------|-------2---------|-------2---------|-------2---------|
|-----3-------3---|-----3-------3---|-----3-------3---|-----3-------3---|
|-1-------1-------|-1-------1-------|-1-------1-------|-1-------1-------|
|-----------------|-----------------|-----------------|-----------------|
Keeping my hands on the wheel I
A
, . , . , . , . , . , . , . , . , . , . , . , . , . , . , . , .
|-----------------|-----------------|-----------------|-----------------|
|-2---------2-----|-2---------2-----|-2---------2-----|-2---------2-----|
|-------2---------|-------2---------|-------2---------|-------2---------|
|-----2-------2---|-----2-------2---|-----2-------2---|-----2-------2---|
|-0-------0-------|-0-------0-------|-0-------0-------|-0-------0-------|
|-----------------|-----------------|-----------------|-----------------|
hold you.
Abmaj7
, . , . , . , . , . , . , . , . , . , . , . , . , . , . , . , .
|-----------------|-----------------|-----------------|-----------------|
|-----------------|-----------------|-----------------|-----------------|
|-5---------5-----|-5---------5-----|-----------5-----|-----------5-----|
|-------6---------|-------6---------|-------6---------|-------6---------|
|-----6-------6---|-----6-------6---|-----6-------6---|-----6-------6---|
|-4-------4-------|-4-------4-------|-4-------4-------|-4-------4-------|
99 miles from L.A.
G
, . , . , . , . , . , . , . , . , . , . , . , . , . , . , . , .
|-----------------|-----------------|-----------------|-----------------|
|-0---------0-----|-0---------0-----|-----------0-----|-0---------0-----|
|-------0---------|-------0---------|-------0---------|-------0---------|
|-----0-------0---|-----0-------0---|-----0-------0---|-----0-------0---|
|-----------------|-----------------|-----------------|-----------------|
|-3-------3-------|-3-------3-------|-3-------3-------|-3-------3-------|
I kiss you, I miss you please be
Cm
, . , . , . , . , . , . , . , . , . , . , . , . , . , . , . , .
|-----------------|-----------------|-----------------|-----------------|
|-4---------4-----|-4---------4-----|-4---------4-----|-4---------4-----|
|-------5---------|-------5---------|-------5---------|-------5---------|
|-----5-------5---|-----5-------5---|-----5-------5---|-----5-------5---|
|-3-------3-------|-3-------3-------|-3-------3-------|-3-------3-------|
|-----------------|-----------------|-----------------|-----------------|
there.
Verse 2 as verse 1
------------------
The chorus alternates between Cm and G with the same pattern..
Verse 3 as before
------------------
************************************************************************
* Rich Kent; email [email protected] ; http://www.dur.ac.uk/~d213ga *
************************************************************************





Ваше мнение



Капча