ВСТУПЛЕНИЕ
Clean Guitar
2 times F Gm
Dm B
E|--0----0-0-----1----1-1---|-5----5-5-----3----3-3----
B|*-3----3-3-----3----3-3-*-|-6----6-6-----3----3-3----
G|--2----2-2-----3----3-3---|-5----5-5-----3----3-3----
D|--0----0-0-----3----3-3---|-7----7-7-----5----5-5----
A|*-0----0-0-----1----1-1-*-|-8----8-8-----5----5-5----
E|--------------------------|--------------3----3-3----
/
F Fmaj7 Gm Am
E|-5----5-5------3----5-----
B|-6----5-5------3----5-----
G|-5----5-5------3----5-----
D|-7----7-7------5----7-----
A|-8----8-8------5----7-----
E|---------------3----5-----
/
Riff D5
Guitar I
Dm
E|---------------------|------------------------------
B|---------------------|------------------------------
G|---------------------|------------------------------
D|---------7---------5-|---------8---------5----------
A|-5-5-5-5---5-5-5-5---|-5-5-5-5---5-5-5-5------------
E|---------------------|------------------------------
/
PM . . . . . . . . . . . . . . . .
Guitar II
E|---------------------|------------------------------
B|---------------------|------------------------------
G|---------------------|------------------------------
D|---------3---------2-|---------5---------2----------
A|-5-5-5-5---5-5-5-5---|-5-5-5-5---5-5-5-5------------
E|---------------------|------------------------------
/
PM . . . . . . . . . . . . . . . .

Guitar I
Dm
E|---------------------
B|---------------------
G|---------------------
D|---7-----------------
A|---5-----------------
E|---------------------
/
Guitar II
E|---------------------
B|---------------------
G|---------------------
D|---7-----------------
A|---5-----------------
E|---------------------
/
Раньше ты был в стороне, не "против" и не "за"
Riff D5
Guitar I
B
E|---------------------
B|---------------------
G|---------------------
D|---8-----------------
A|---8-----------------
E|---6-----------------
/
Guitar II
E|---------------------
B|---------------------
G|---------------------
D|---8-----------------
A|---8-----------------
E|---6-----------------
/
Но однажды старший брат тебе открыл глаза
Riff D5
Guitar I
Dm
E|---------------------
B|---------------------
G|---------------------
D|---7-----------------
A|---5-----------------
E|---------------------
/
Guitar II
E|---------------------
B|-------------13b15---
G|---------------------
D|---7-----------------
A|---5-----------------
E|---------------------
/
Сговор древних мудрецов поставил мир на грань
Riff D5
Guitar I
B
E|---------------------
B|---------------------
G|---------------------
D|---8-----------------
A|---8-----------------
E|---6-----------------
/
Guitar II
E|---------------------
B|---------------------
G|---------------------
D|---8-----------------
A|---8-----------------
E|---6-----------------
/
Власть в руках у чужаков, и ты и платишь дань
Riff D5

Riff G5 - 2 раза
Guitar I
G A G A
E|-------------|--------------
B|-------------|--------------
G|-------------|4-4-4/6-6-6---
D|-5-5-5/7-7-7-|--------------
A|-------------|--------------
E|-------------|--------------
/
Guitar II
E|-------------|--------------
B|-------------|--------------
G|-------------|--------------
D|-------------|-5-5-5/7-7-7--
A|-5-5-5/7-7-7-|--------------
E|-------------|--------------
/
Пустота на месте звезд, огонь вокруг креста
Кто-то проклял твой народ, и это неспроста
Но наступит время "икс" - и оживет колосс
Ставки слишком высоки, игра идет всерьез
ПРИПЕВ:
Riff G5
Нож как бритва
Guitar I
Dm C B A
E|----------------------------------------------------
B|----------------------------------------------------
G|-7-7-7/9-9-9-9/10-10-10-10/12-----------------------
D|----------------------------------------------------
A|----------------------------------------------------
E|----------------------------------------------------
/ Бу---дет би--------тва
Guitar II
Dm C B A
E|----------------------------------------------------
B|----------------------------------------------------
G|-5-5-5/3-3-3-3/1-1-1-1/0----------------------------
D|----------------------------------------------------
A|----------------------------------------------------
E|----------------------------------------------------
/
Guitar I
Dm B
E|--5-------------------------------------------------
B|--5------------5------------------------------------
G|--7--------------7-----------------7----------------
D|--7----------------7----------8------8--------------
A|---------------------5--------8--------8--/10-------
E|------------------------------6---------------------
/
Guitar II
Dm B
E|----------------------------------------------------
B|----------------------------------------------------
G|----------------------------------------------------
D|--7---------------------------8---------------------
A|--5---------------------------8---------------------
E|------------------------------6---------------------
/ Кулак! Как флаг над буйной головой!
Вожак сказал: "Свое возьмем с лихвой!"
Guitar I
F G
E|----------------------------------------------------
B|----------------------------------------------------
G|----------------------------------------------------
D|--3----------------------5--------------------------
A|--3----------------------5--------------------------
E|--1----------------------3--------------------------
/ Во тьме не спасется враг
Guitar II (Триоли)
E|-5-----5-----5-----5-----5-----5-----5-----5--------
B|---6-----6-----6-----6-----6-----6-----6-----6------
G|-----5-----5-----5-----5-----5-----5-----5-----5----
D|----------------------------------------------------
A|----------------------------------------------------
E|----------------------------------------------------
/
Guitar I
E|----------------------------------------------------
B|----------------------------------------------------
G|-------------5-----------3----------5----5---5------
D|--3----------5-----------3----------5----5---5-7----
A|--3----------3-----------1----------3----3---3-7----
E|--1--------------------------------------------5----
/ Пора! Готовься сделать шаг, тебе дадут знак!
Guitar II (Threolies)
E|-5-----5-----3-----3-----1-----1-----3--------------
B|---6-----6-----5-----5-----3-----3-----5-----5------
G|-----5-----5-----5-----5-----3-----3-----5----------
D|-----------------------------------------------7----
A|-----------------------------------------------7----
E|-----------------------------------------------5----
/
Guitar I - Riff D5 (2 times)
Guitar II (Solo)
Tr. 5 times
/------
E|--------------13------------------------------------
B|--15~---13b15-----15--------------------------------
G|----------------------------------------12p10-------
D|------------------------10b12-(19)-(12)-------12----
A|----------------------------------------------------
E|----------------------------------------------------
/ T - делается на 17-м ладу
Ловко пущен механизм, идет за строем строй
В одиночку ты никто, зато в толпе - герой
У тебя свои цвета, ты знаешь грозный клич
Нерушима та стена, в которой ты кирпич!
ПРИПЕВ.
ЛИРИЧЕСКОЕ ОСТУПЛЕНИЕ:
RythmFig
Guitar I (Rythm) - 2 times
E|--------------------------5-------------------------
B|--------7-8-7-----------7---7-----------------------
G|------7-------7-------7-------7---------------------
D|----7-----------7---7-----------7-------------------
A|--5---------------5---------------------------------
E|----------------------------------------------------
/
E|----------7-----------------------------------------
B|--------9---9-----------9-10-9----------------------
G|------9-------9-------9--------9--------------------
D|----9-----------9---9------------9------------------
A|--7---------------7---------------------------------
E|----------------------------------------------------
/
E|--------------------------6-------------------------
B|--------8-9-8-----------8----8----------------------
G|------8-------8-------8--------8--------------------
D|----8-----------8---8------------8------------------
A|--6---------------6---------------------------------
E|----------------------------------------------------
/
E|--------------------------5-------------------------
B|--------7-8-7-----------7---7-----------------------
G|------7-------7-------7-------7---------------------
D|----7-----------7---7-----------7-------------------
A|--5---------------5---------------------------------
E|----------------------------------------------------
/
SoloFig
Guitar II (Solo)
E|----------------------------------------------------
B|-------5-7===================----------------------
G|-----7----------------------------------------------
D|--/7------------------------------------------------
A|----------------------------------------------------
E|----------------------------------------------------
/
E|----------------------------------------------------
B|----------------------------------------------------
G|-----7-9-11-9h11p9-7---7=====/----------------------
D|--/9-----------------9------------------------------
A|----------------------------------------------------
E|----------------------------------------------------
/
E|-----------8-10p8-10b11r10-8h10p8----8--------------
B|--8---8-11------------------------11---11-----------
G|----8-----------------------------------------------
D|----------------------------------------------------
A|----------------------------------------------------
E|----------------------------------------------------
/
E|----------------------------------------------------
B|--10===--8-7h8p7-----------------------------------
G|----------------------------------------------------
D|----------------------------------------------------
A|----------------------------------------------------
E|----------------------------------------------------
/
E|--/14--12h14----------------------------------------
B|-------------15--12========------------------------
G|----------------------------------------------------
D|----------------------------------------------------
A|----------------------------------------------------
E|----------------------------------------------------
/
E|---------12-14-12h14--------------------------------
B|--/12-15-------------15-12-15----------------------
G|----------------------------------------------------
D|----------------------------------------------------
A|----------------------------------------------------
E|----------------------------------------------------
/
E|-----15-16-18-16h18p16-15-16-15h16p15-13-15--13b15==
B|--16------------------------------------------------
G|----------------------------------------------------
D|----------------------------------------------------
A|----------------------------------------------------
E|----------------------------------------------------
/
E|-(15)~~----------------10---------------------------
B|--------------------10----10h12p10----10-----------
G|-----------------11----------------11---------------
D|----------------------------------------------------
A|----------------------------------------------------
E|----------------------------------------------------
/
Guitar I,II - Rythm Fig
Ты мог родиться совсем в иных краях
Где нет решеток, и не строят плах
Где женщины не плачут, и не прячут лиц
Где дети не хотят играть в убийц...
аккорды во время соло такие:
H5--------E5----H5--A5-- - 2 times
H5----D5----A5----C5--D5-- - 2 times
Riff D5 - 2 times
Ангел смерти будет здесь, когда начнется бой
Он толкнет тебя на штык и заберет с собой
Но опять играет Марш, опять вопит Главарь...
И колонны дураков восходят на алтарь!
Нож как бритва!
Будет битва!
Кулак - как флаг над буйной головой
Маньяк сказал: - "Свое возьмем с лихвой!"
Во тьме не спасется враг
Пора, готовься сделать шаг
Тебе дадут знак!
Guitar I,II
E|------------------------------
B|------------------------------
G|------------------------------
D|--------5-7-------------------
A|--5-7-8-----8-5---7-8-5-8--7--
E|------------------------------
/
E|--------------------------------
B|--------------------------------
G|--------------------------------
D|--------5-7---------------------
A|--5-7-8-----8-5---7-8-5-7b8r7-5-
E|--------------------------------
/ Тебе дадут ствол!
штык!
кол!
цепь!
лом!
гроб!
E|------------------------------
B|------------------------------
G|--------5-7-------------------
D|--5-7-8-----8-5---7-8-5-8--7--
A|------------------------------
E|------------------------------
/
E|--------------------------------
B|--------------------------------
G|--------5-7---------------------
D|--5-7-8-----8-5---7-8-5-7b8r7-5-
A|--------------------------------
E|--------------------------------
/ Тебе дадут флаг!
знак!
танк!
кнут!
знак!




Ваше мнение



Капча