Megalomania (1985 - Megalomania)

Tempo: slow (80 bpm)
(0:01 - 0:26)
INTRO:
Church Organ.
(0:26 - 0:50)
VERSE 1: (*2 times)
Choir1E|-10----------------------------------------------|-------------------------------------------------|
H|-------10-------------------------------------8--|-10-------10----------------------------------8--|
G|----------7--------------------------7--9--10----|-------9-----------------------------7--9--10----|
D|-------------------------------------------------|-------------------------------------------------|
A|-------------------------------------------------|-------------------------------------------------|
E|-------------------------------------------------|-------------------------------------------------|
| | |
Bass G|-------------------------------------------------|-------------------------------------------------|
+ D|-------------------------------------------------|-------------------------------------------------|
choir2A|----------------5--7--8--5-----------------------|----------------4--5--7--------------------------|
E|-------------------------------------------------|-------------------------5-----------------------|

Choir1E|-------------------------------------------------|-------------------------------------------------|
H|-10----8--------8--10----8-----------------------|-------------------------------------------------|
G|----------10----------------------------9--10----|-7--------10----9--7-----7-----------------------|
D|----------------------------10-------------------|----------------------10-------------------------|
A|-------------------------------------------------|-------------------------------------------------|
E|-------------------------------------------------|-------------------------------------------------|
| | |
Bass G|-------------------------------------------------|-------------------------------------------------|
+ D|-------------------------------------------------|-------------------------------------------------|
choir2A|-------------------------------------------------|-5--------8-----7--5-----5-----------------------|
E|--6----------------------8-----------5-----------|----------------------8--------------------------|
...
(1:12 - 1:36)
CHORUS: (*2 times)
Choir1E|-10----------------------------------------------|-------------------------------------------------|
H|-------10-------------------------------------8--|-10-------10----------------------------------8--|
G|----------7--------------------------7--9--10----|-------9-----------------------------7--9--10----|
D|-------------------------------------------------|-------------------------------------------------|
A|-------------------------------------------------|-------------------------------------------------|
E|-------------------------------------------------|-------------------------------------------------|
| | |
Gtr. E|-------------------------------------------------|-------------------------------------------------|
H|-------------------------------------------------|-------------------------------------------------|
G|-------------------------------------------------|-------------------------------------------------|
D|-------------------------7-----------------------|-------------------------------------------------|
A|-------------------------5-----------------------|-------------------------7-----------------------|
E|-------------------------------------------------|-------------------------5-----------------------|

Choir1E|-------------------------------------------------|-------------------------------------------------|
H|-10----8--------8--10----8-----------------------|-------------------------------------------------|
G|----------10----------------------------9--10----|-7--------10----9--7-----7-----------------------|
D|----------------------------10-------------------|----------------------10-------------------------|
A|-------------------------------------------------|-------------------------------------------------|
E|-------------------------------------------------|-------------------------------------------------|
| | |
Gtr. E|-------------------------------------------------|-------------------------------------------------|
H|-------------------------------------------------|-------------------------------------------------|
G|-------------------------------------------------|-------------------------------------------------|
D|-------------------------------------------------|-7-----------------------------------------------|
A|--8----------------------10----------7-----------|-5-----------------------------------------------|
E|--6----------------------8-----------5-----------|-------------------------------------------------|
undefined




Ваше мнение



Капча