E-------------------------------------|------------------------------|
H----8---7----------------------------|---7--------------------------|
G---9--------9---7-------9------------|---7---9---7----------8-------|
D--9-------------------10-------------|---7-----------10----9--------|
A--------------------10---------------|--------------------9---------|
E-------------------------------------|------------------------------|
E-------------------------------------|-----------------------------||
H----8---7-------8------10--8---------|--7--8--7--8--7h8p7----------||
G---9--------9---------9-----------9--|--7------------------7-----9-||
D--9-----------------10----------10---|--7-----------------------9--||
A------------------------------10-----|------------------------10---||
E-------------------------------------|-----------------------------||
Main riff :
E-------------------------------------|-----------------------------------|
H-------------------------------------|-----------------------------------|
G-------------------------------------|-----------------------------------|
D--7---------8---------7--------------|-----------------------------------|
A-----8--5------8--5------8--5---5----|--5--5-----5--7--8--7--5h7p5-----5-|
E-------------------------------------|--------8---------------------8----|
E-------------------------------------|-----------------------------------|
H-------------------------------------|-----------------------------------|
G-------------------------------------|-----------------------------------|
D--7---------8---------7--------------|-----------------------------------|
A-----8--5------8--5------8--5---5----|--5--5-----5--7--8--7--5h7p5-------|
E-------------------------------------|--------8---------------------8--5-|
E-------------------------------------|-----------------------------------|
H-------------------------------------|-----------------------------------|
G-------------------------------------|-----------------------------------|
D--7---------8---------7--------------|-----------------------------------|
A-----8--5------8--5------8--5---5----|--5--5-----5--7--8--7--5h7p5--8--5-|
E-------------------------------------|--------8--------------------------|
E-------------------------------------|-----------------------------------|
H-------------------------------------|-----------------------------------|
G-------------------------------------|-----------------------------------|
D--7---------8---------7--------------|---------------------------------7-|
A-----8--5------8--5------8--5---5----|--5--5-----5--7--8--7--5h7p5--8----|
E-------------------------------------|--------8--------------------------|
I verse :




Ваше мнение



Капча