From: Валерий Оловянников [email protected]
INTRO:
Gtr.1Eb||---------------------|--------------------|---------------------|----------------||
Hb||---------------------|--------------------|---------------------|----------------||
Gb||---------------------|--------------------|---------------------|----------------||
Db||-9-------------------|-(9)----------------|-(9)-----------------|-(9)------------||
Ab||-9-------------------|-(9)----------------|-(9)-----------------|-(9)------------||
Eb||-7-------------------|-(7)----------------|-(7)-----------------|-(7)------------||
(0:16 - 0:31)
RIFF 1:
Gtr.2Eb|----------------------------------|---------------------------------|
Hb|----------12----------12----------|-12----------12----------12------|
Gb|------11----------11----------11--|---------11----------11------11--|
Db|--9-----------9-----------9-------|-----9-----------9---------------|
Ab|----------------------------------|---------------------------------|
Eb|----------------------------------|---------------------------------|
| | |
Gtr.1Eb|----------------------------------|---------------------------------|
Hb|----------------------------------|---------------------------------|
Gb|----------------------------------|---------------------------------|
Db|--9-------------------------------|-(9)-----------------------------|
Ab|--9-------------------------------|-(9)-----------------------------|
Eb|--7-------------------------------|-(7)-----------------------------|
Gtr.2Eb|----------------------------------|---------------------------------|
Hb|----------------------------------|---------------------------------|
Gb|----------10----------10----------|-10----------10----------10------|
Db|------10----------10----------10--|---------10----------10------10--|
Ab|--8-----------8-----------8-------|-----8-----------8---------------|
Eb|----------------------------------|---------------------------------|
| | |
Gtr.1Eb|----------------------------------|---------------------------------|
Hb|----------------------------------|---------------------------------|
Gb|----------------------------------|---------------------------------|
Db|--3-------------------------------|-(3)-----------------------------|
Ab|--3-------------------------------|-(3)-----------------------------|
Eb|--1-------------------------------|-(1)-----------------------------|
Gtr.2Eb|----------------------------------|---------------------------------|
Hb|----------12----------12----------|-12----------12----------12------|
Gb|------11----------11----------11--|---------11----------11------11--|
Db|--9-----------9-----------9-------|-----9-----------9---------------|
Ab|----------------------------------|---------------------------------|
Eb|----------------------------------|---------------------------------|
| | |
Gtr.1Eb|----------------------------------|---------------------------------|
Hb|----------------------------------|---------------------------------|
Gb|----------------------------------|---------------------------------|
Db|--9-------------------------------|-(9)-----------------------------|
Ab|--9-------------------------------|-(9)-----------------------------|
Eb|--7-------------------------------|-(7)-----------------------------|
Gtr.2Eb|----------------------------------|---------------------------------|
Hb|----------------------------------|---------------------------------|
Gb|----------12----------12----------|-12----------12----------12------|
Db|------12----------12----------12--|---------12----------12------12--|
Ab|--10----------10----------10------|-----10----------10--------------|
Eb|----------------------------------|---------------------------------|
| | |
Gtr.1Eb|----------------------------------|---------------------------------|
Hb|----------------------------------|---------------------------------|
Gb|----------------------------------|---------------------------------|
Db|--5-------------------------------|-(5)-----------------------------|
Ab|--5-------------------------------|-(5)-----------------------------|
Eb|--3-------------------------------|-(3)-----------------------------|
(0:31 - 0:35)
RIFF 2:
Gtr.1Eb|----------------------------------|---------------------------------|
+ Hb|----------------------------------|---------------------------------|
Gtr.2Gb|--------------------------R-------|-------------------------R-------|
Db|--9-9-9-9-9---9-9---9-9---E-------|-9-9-9-9-9---9-9---9-9---E-------|
Ab|--9-9-9-9-9---9-9---9-9---S-------|-9-9-9-9-9---9-9---9-9---S-------|
Eb|--7-7-7-7-7---7-7---7-7---T-------|-7-7-7-7-7---7-7---7-7---T-------|
(0:35 - 1:05)
VERSE 1:
VoiceEb|--------------------------------------------------------------------|
Hb|--------------------------------------------------------------------|
Gb|--------------------------------------------------------------------|
Db|----------2---0---4-------2---0---------0---2---4-------------------|
Ab|------------------------------------2-------------------------------|
Eb|------- Bo -gi pro - klya -li spya -tivshiy Rim ---------------|
| | |
Gtr.1Eb|----------------------------------|---------------------------------|
+ Hb|----------------------------------|---------------------------------|
Gtr.2Gb|----------------------------------|---------------------------------|
Db|----------------------------------|---------------------------------|
Ab|--9-9-9-9-9---9-9---9-9---9-9-9-9-|-7/9-9-9-9---9-9---9-9---9-9-9-9-|
Eb|--7-7-7-7-7---7-7---7-7---7-7-7-7-|-5/7-7-7-7---7-7---7-7---7-7-7-7-|
VoiceEb|--------------------------------------------------------------------|
Hb|--------------------------------------------------------------------|
Gb|------------------------------------2-------2-----------------------|
Db|----------2---0----4------2---0-----------------4-------2---0-------|
Ab|--------------------------------------------------------------------|
Eb|------- Go -rod bro - shen-nyh zhen - schin i ka -lek ----|
| | |
Gtr.1Eb|----------------------------------|---------------------------------|
+ Hb|----------------------------------|---------------------------------|
Gtr.2Gb|----------------------------------|---------------------------------|
Db|----------------------------------|---------------------------------|
Ab|--7-7-7-7-7---7-7---7-7---7-7-7-7-|-6/7-7-7-7---7-7---7-7---7-7-7-7-|
Eb|--5-5-5-5-5---5-5---5-5---5-5-5-5-|-4/5-5-5-5---5-5---5-5---5-5-5-5-|
VoiceEb|--------------------------------------------------------------------|
Hb|--------------------------------------------------------------------|
Gb|--------------------------------------------------------------------|
Db|----------0----0--4-------2---0----------0--2---4-------------------|
Ab|-------------------------------------2------------------------------|
Eb|------ Zdes' glota - yut ot - rav -lennyy dym ---------------|
| | |
Gtr.1Eb|----------------------------------|---------------------------------|
+ Hb|----------------------------------|---------------------------------|
Gtr.2Gb|----------------------------------|---------------------------------|
Db|----------------------------------|---------------------------------|
Ab|--6-6-6-6-6---6-6---6-6---6-6-6-6-|-5/6-6-6-6---6-6---6-6---6-6-6-6-|
Eb|--4-4-4-4-4---4-4---4-4---4-4-4-4-|-3/4-4-4-4---4-4---4-4---4-4-4-4-|
VoiceEb|--------------------------------------------------------------------|
Hb|--------------------------------------------------------------------|
Gb|--------------------------------------------------------------------|
Db|---0------0-------0---2---0----0--------5---------------------------|
Ab|--------------------------------------------------------------------|
Eb|- Re - zhut lez-vi - em ve - ny ------------------------|
| | |
Gtr.1Eb|----------------------------------|---------------------------------|
+ Hb|----------------------------------|---------------------------------|
Gtr.2Gb|----------------------------------|---------------------------------|
Db|----------------------------------|------------------------/10------|
Ab|--5-5-5-5-5---5-5---5-5---5-5-5-5-|-4/5-5-5-5---5-5---5-5--/10------|
Eb|--3-3-3-3-3---3-3---3-3---3-3-3-3-|-2/3-3-3-3---3-3---3-3--/8-------|
...
VoiceEb|--------------------------------------------------------------------|
Hb|--------------------------------------------------------------------|
Gb|--------------------------------------------------------------------|
Db|---0------0-------0---2---0----0------------------------------------|
Ab|----------------------------------------4---------------------------|
Eb|- zhel - tom kru -ge a - re - ny ------------------------|
| | |
Gtr.1Eb|----------------------------------|---------------------------------|
+ Hb|----------------------------------|---------------------------------|
Gtr.2Gb|----------------------------------|---------------------------------|
Db|----------------------------------|---------------------------------|
Ab|--5-5-5-5-5---5-5---5-5---5-5-5-5-|-4-4-4-4-4---4-4---4-4---4-4-4-4-|
Eb|--3-3-3-3-3---3-3---3-3---3-3-3-3-|-2-2-2-2-2---2-2---2-2---2-2-2-2-|
(1:05 - 1:19)
PRE-CHORUS:
VoiceEb|------------------------------------------------------------------------------------------------------|
Hb|------------------------------------------------------------------------------------------------------|
Gb|------------------------------------------------------------4---4-----4-----------2-------------------|
Db|--2-----2-----0---2-----2-----0-----2-----2-------------------------------------------4-----2-----0---|
Ab|------------------------------------------------------------------------------------------------------|
Eb|- Si - la pri -no - sit svo - bo - du. Po -bezh -day i sta - nesh' zvez- |
| | | |
Gtr.1Eb|----------------------------------|---------------------------------|---------------------------------|
+ Hb|----------------------------------|---------------------------------|---------------------------------|
Gtr.2Gb|----------------------------------|---------------------------------|---------------------------------|
Db|--9---------------------------7---|-9-------------------------------|---------------------------------|
Ab|--7---------------------------5---|-7-------------------------------|-9---------------7---------------|
Eb|----------------------------------|---------------------------------|-7---------------5---------------|
VoiceEb|--------------------------------------------------------------------|
Hb|--------------------------------------------------------------------|
Gb|--------------------------------------------------------------------|
Db|---2----------0-------------------------0-------------------4---4---|
Ab|------------------2-------0---2-------------------------------------|
Eb|- do - o - oy, a mo - zhet ob -re- |
| | |
Gtr.2Eb|--4---------------4---------------|-4---------------4---------------|
Hb|--------5---------------5---------|-------5---------------5---------|
Gb|--------------4---------------4---|-------------4---------------4---|
Db|----------------------------------|---------------------------------|
Ab|----------------------------------|---------------------------------|
Eb|----------------------------------|---------------------------------|
| | |
Gtr.1Eb|----------------------------------|---------------------------------|
Hb|----------------------------------|---------------------------------|
Gb|----------------------------------|---------------------------------|
Db|----------------------------------|---------------------------------|
Ab|--7-------------------------------|-(7)-----------------------------|
Eb|--4-------------------------------|-(4)-----------------------------|
VoiceEb|--------------------------------------------------------------------|
Hb|--------------------------------------------------------------------|
Gb|--------------------------------------------------------------------|
Db|---2----------0---------------------------------------------4-------|
Ab|------------------2--------0----2-----------------------------------|
Eb|- te - e - esh' po - koy. Tvoy ----|
| | |
Gtr.2Eb|--3---------------3---------------|---------------------------------|
Hb|--------3---------------3---------|---------------------------------|
Gb|--------------4---------------4---|---------------------------------|
Db|----------------------------------|---------------------------------|
Ab|----------------------------------|---------------------------------|
Eb|----------------------------------|-3p2p1p0-3p2p1p0-3p2p1p0-3p2p1p0-|
| | |
Gtr.1Eb|----------------------------------|---------------------------------|
Hb|----------------------------------|---------------------------------|
Gb|----------------------------------|---------------------------------|
Db|----------------------------------|---------------------------------|
Ab|--5-------------------------------|---------------------------------|
Eb|--3-------------------------------|-3p2p1p0-3p2p1p0-3p2p1p0-3p2p1p0-|
(1:19 - 1:50)
CHORUS:
VoiceEb|--------------------------------------------------------------------|
Hb|--------------------------------------------------------------------|
Gb|---4----------2---------------------2-------------------------------|
Db|------------------4-----------------------4-----2---4---------------|
Ab|--------------------------------------------------------------------|
Eb| vrag v py -li, zha - lok i slab, ----------|
| | |
Gtr.1Eb|----------------------------------|---------------------------------|
+ Hb|----------------------------------|---------------------------------|
Gtr.2Gb|--4-----------4-----------4-------|-7-----------7-----------7-------|
Db|--4-----------4-------4-4-4-------|-7-----------7-------7-7-7-------|
Ab|--2-----------2-------2-2-2-------|-5-----------5-------5-5-5-------|
Eb|----------------------------------|---------------------------------|
VoiceEb|--------------------------------------------------------------------|
Hb|--------------------------------------------------------------------|
Gb|--------------------------------------------------------------------|
Db|--2---2---4---2---------------------2---2---4---5---------------4---|
Ab|--------------------------------------------------------------------|
Eb| zagnannyy zver', ra -nennyy rab. E- -|
| | |
Gtr.1Eb|----------------------------------|---------------------------------|
+ Hb|----------------------------------|---------------------------------|
Gtr.2Gb|--9-----------9-----------9-------|-9---------------12--------------|
Db|--9-----------9-------9-9-9-------|-9---------------12--------------|
Ab|--7-----------7-------7-7-7-------|-7---------------10--------------|
Eb|----------------------------------|---------------------------------|
VoiceEb|--------------------------------------------------------------------|
Hb|--------------------------------------------------------------------|
Gb|---4----------2---------------------2-------------------------------|
Db|------------------4-------4---4-----------4-----2---4---------------|
Ab|--------------------------------------------------------------------|
Eb| sche se- kun - da, i ska - zhet "u -bey" --------|
| | |
Gtr.1Eb|----------------------------------|---------------------------------|
+ Hb|----------------------------------|---------------------------------|
Gtr.2Gb|--4-----------4-----------4-------|-7-----------7-----------7-------|
Db|--4-----------4-------4-4-4-------|-7-----------7-------7-7-7-------|
Ab|--2-----------2-------2-2-2-------|-5-----------5-------5-5-5-------|
Eb|----------------------------------|---------------------------------|
VoiceEb|--------------------------------------------------------------------|
Hb|--------------------------------------------------------------------|
Gb|--------------------------------------------------------------------|
Db|--2------2----4---2---0--------------------------------------4------|
Ab|--------------------------2-----------------------------------------|
Eb| perst im -pe -ra -to -ra. Svya - -|
| | |
Gtr.1Eb|----------------------------------|---------------------------------|
+ Hb|----------------------------------|---------------------------------|
Gtr.2Gb|--9-----------9-----------9-------|---------------------------------|
Db|--9-----------9-------9-9-9-------|-5-------5-------7-------7-------|
Ab|--7-----------7-------7-7-7-------|-5-------5-------7-------7-------|
Eb|----------------------------------|-3---3-3-3-------5---5-5-5-------|
VoiceEb|--------------------------------------------------------------------|
Hb|--------------------------------------------------------------------|
Gb|---4----------2---------------------2-------------------------------|
Db|------------------4-----------------------4-----2---4---------------|
Ab|--------------------------------------------------------------------|
Eb| toy sud'be ne pre - kos-lov', -|
| | |
Gtr.1Eb|----------------------------------|---------------------------------|
+ Hb|----------------------------------|---------------------------------|
Gtr.2Gb|--4-----------4-----------4-------|-7-----------7-----------7-------|
Db|--4-----------4-------4-4-4-------|-7-----------7-------7-7-7-------|
Ab|--2-----------2-------2-2-2-------|-5-----------5-------5-5-5-------|
Eb|----------------------------------|---------------------------------|
VoiceEb|--------------------------------------------------------------------|
Hb|--------------------------------------------------------------------|
Gb|--------------------------------------------------------------------|
Db|--2---2---4---2---------------------2---2---4---5---------------4---|
Ab|--------------------------------------------------------------------|
Eb| vo - et tol-pa, chuvstvu -et krov'. Ne -|
| | |
Gtr.1Eb|----------------------------------|---------------------------------|
+ Hb|----------------------------------|---------------------------------|
Gtr.2Gb|--9-----------9-----------9-------|-9---------------12--------------|
Db|--9-----------9-------9-9-9-------|-9---------------12--------------|
Ab|--7-----------7-------7-7-7-------|-7---------------10--------------|
Eb|----------------------------------|---------------------------------|
VoiceEb|--------------------------------------------------------------------|
Hb|--------------------------------------------------------------------|
Gb|---4----------2---------------------2-------------------------------|
Db|------------------4-------4---4-----------4-----2---4---------------|
Ab|--------------------------------------------------------------------|
Eb| zna - et skor - bi, ni zhen ni dru -zey ---|
| | |
Gtr.1Eb|----------------------------------|---------------------------------|
+ Hb|----------------------------------|---------------------------------|
Gtr.2Gb|--4-----------4-----------4-------|-7-----------7-----------7-------|
Db|--4-----------4-------4-4-4-------|-7-----------7-------7-7-7-------|
Ab|--2-----------2-------2-2-2-------|-5-----------5-------5-5-5-------|
Eb|----------------------------------|---------------------------------|
VoiceEb|----------------------------------------------------------------------------------..
Hb|----------------------------------------------------------------------------------..
Gb|----------------------------------------------------------------------------------..
Db|--2------2----4---2---0-----------------------------------------------------------..
Ab|--------------------------2----------------------------------0---0---2------------..
Eb| zhizn' gla- di - a -to -ra. Ko -li- zey ..
| | |
Gtr.1Eb|----------------------------------|---------------------------------|-------------..
+ Hb|----------------------------------|---------------------------------|-------------..
Gtr.2Gb|--9-----------9-----------9-------|---------------------------------|- -> -----..
Db|--9-----------9-------9-9-9-------|-5-------5-------7-------7-------|- to Riff 1 -..
Ab|--7-----------7-------7-7-7-------|-5-------5-------7-------7-------|-------------..
Eb|----------------------------------|-3---3-3-3-------5---5-5-5-------|-------------..
(1:50 - 2:05) RIFF 1
(2:05 - 2:35) VERSE 2
(2:36 - 2:49) PRE-CHORUS
(2:50 - 3:20) CHORUS
(3:28 - 3:58)
INTERLUDE:
Gtr.Eb||-------7-----------------|-------------------------|-------7-----------------|-------------------------|
Hb||----------------10-------|-(10)--------------------|----------------10-------|-(10)--------------------|
Gb||----7--------7-----------|-------------------------|----7--------7-----------|-------------------------|
Db||-9--------9--------------|-------------------------|-9--------9--------------|-------------------------|
Ab||-------------------------|-------------------------|-------------------------|-------------------------|
Eb||-------------------------|-------------------------|-------------------------|-------------------------|
|| | | | |
BassGb||-------------------------|-------------------------|-------------------------|-------------------------|
Db||-------4-------/12------|-------4-------/12------|-------------------------|-------------------------|
Ab||-2-----------2-----------|-2-----------2-----------|-------5-------/12------|-------5-------/14------|
Eb||-------------------------|-------------------------|-3-----------3-----------|-3-----------3-----------|
Gtr.Eb|--------------------------|-------------------------|-------7-----------------|-------------------------||
Hb|--------10-------8--------|-(8)---------------------|----------------10-------|-(10)--------------------||
Gb|-----7--------7-----------|-------------------------|----7--------7-----------|-------------------------||
Db|--9--------9--------------|-------------------------|-9--------9--------------|-------------------------||
Ab|--------------------------|-------------------------|-------------------------|-------------------------||
Eb|--------------------------|-------------------------|-------------------------|-------------------------||
| | | | ||
BassGb|----------------/12------|---------------/12------|-------------------------|-------------------------||
Db|--------9-----------------|-------9-----------------|-------4-------/12------|-------4-------/12------||
Ab|--7-----------7-----------|-7-----------7-----------|-2-----------2-----------|-2-----------2-----------||
Eb|--------------------------|-------------------------|-------------------------|-------------------------||
(3:59 - 4:37)
SOLO:
LeadEb|--12h14p12----------------------------------------|-------------------12-14-12h14p12---------------------|
Hb|-----------15-14~~~~~~~~~~~~~~~~~~~~~~~~~~~~~~~~~~~~~~-------12-14-15---------------15p14-12----12-14-15-|
Gb|--------------------------------------------------|-------14----------------------------14----------|
Db|--------------------------------------------------|-------------------------------------------------|
Ab|--------------------------------------------------|-------------------------------------------------|
Eb|--------------------------------------------------|-------------------------------------------------|
| | |
RthmEb|--------------------------------------------------|-------------------------------------------------|
Hb|--------------0-----------0-----------------------|-------------------------------------------------|
Gb|--------------------------------9-----------------|-(9)---------9-----------9-----------9-----------|
Db|--------9-----------------------9-----------------|-(9)---------9-----------9-----------9-----------|
Ab|--7-----------------7-----------7-----------------|-(7)---7--7--7-----7--7--7-----7--7--7-----7--7--|
Eb|--------------------------------------------------|-------------------------------------------------|
LeadEb|--14-------12-------------------------------------|-------------------------------------------------|
Hb|--------------------15----------------------------|-------------------------------------------------|
Gb|--------------------------11----------------------|-------------------------------------------------|
Db|--- tremolo picking ---------------14-------12----|------------------ A.H. -------------------------|
Ab|--------------------------------------------------|-9-----------------------------------------------|
Eb|--------------------------------------------------|----------12---------------------------------|
| | |
RthmEb|--------------------------------------------------|-------------------------------------------------|
Hb|--------------2-----------------------------------|-------------------------------------------------|
Gb|--------------------------------4-----------------|-(4)---------4-----------4-----------4-----------|
Db|--------4-----------4-----------4-----------------|-(4)---------4-----------4-----------4-----------|
Ab|--2-----------------------2-----2-----------------|-(2)---2--2--2-----2--2--2-----2--2--2-----2--2--|
Eb|--------------------------------------------------|-------------------------------------------------|
LeadEb|--------------------------------------------------|-----------------------7h10p7---------------------|
Hb|--------------------------------------------------|---7--10--7----7h10-10p7-------10p7-10p7-------------|
Gb|----------------------7--------------7--9--7-----7--|-9-----------9-----------------------9-p7--9-p7--|
Db|--------7-----------7---9p7----7--9-----------9-----|-------------------------------------------------|
Ab|--7--9-----9--7--9--------9-----------------------|-------------------------------------------------|
Eb|--------------------------------------------------|-------------------------------------------------|
| | |
RthmEb|--------------------------------------------------|-------------------------------------------------|
Hb|--------------5-----------------------------------|-------------------------------------------------|
Gb|--------------------------------7-----------------|-(7)---------7-----------7-----------7-----------|
Db|--------7-----------7-----------7-----------------|-(7)---------7-----------7-----------7-----------|
Ab|--5-----------------------5-----5-----------------|-(5)---5--5--5-----5--5--5-----5--5--5-----5--5--|
Eb|--------------------------------------------------|-------------------------------------------------|
LeadEb|--------------------------------------------------|-------------------------------------------------|
Hb|--------------------------------------------------|-------------------------------------------------|
Gb|--9~~~~~~~~~~~~~~~~~~~~~~~~~~~~~~~~~~~~~----------|-(9)---7---------\\\\\- w/tremolo bar --|
Db|--------------------------------------------------|----------- A.H. --------------------------------|
Ab|--------------------------------------------------|-------------------------------------------------|
Eb|--------------------------------------------------|-------------------------------------------------|
| | |
RthmEb|--------------------------------------------------|-------------------------------------------------|
Hb|--------------0-----------0-----------------------|-------------------------------------------------|
Gb|--------------------------------2-----------------|-(2)---------2-----------2-----------2-----------|
Db|--------2-----------2-----------2-----------------|-(2)---------2-----------2-----------2-----------|
Ab|--0-----------------------------0-----------------|-(0)---0--0--0-----0--0--0-----0--0--0-----0--0--|
Eb|--------------------------------------------------|-------------------------------------------------|
LeadEb|--------------------------------------------------|-------------------------------------------------|
Hb|--------------------------------------------------|-5-h7-p5-----5-----5-h7-p5-----5-----------------|
Gb|--------------------------------------------------|----------7-----------------7--------------7-----|
Db|--2-h4-p2-p0--2-----2-h4-p2-p0--2-----------------|-------------------------------------------------|
Ab|--------------------------------------------------|-------------------------------------------------|
Eb|--------------------------------------------------|-------------------------------------------------|
| | |
RthmEb|--------------------------------------------------|-------------------------------------------------|
Hb|--------------0-----------0-----------------------|-------------------------------------------------|
Gb|--------------------------------9-----------------|-(9)---------9-----------9-----------9-----------|
Db|--------9-----------------------9-----------------|-(9)---------9-----------9-----------9-----------|
Ab|--7-----------------7-----------7-----------------|-(7)---7--7--7-----7--7--7-----7--7--7-----7--7--|
Eb|--------------------------------------------------|-------------------------------------------------|
LeadEb|--------------------------10---------/14----------|--------------------------------------14---------|
Hb|---------------------------------------------17-bend19...............release17~~~~~~~~--------------|
Gb|--7----------/9-----------------------------------|-------------------------------------------------|
Db|--------------------------------------------------|-------------------------------------------------|
Ab|--------------------------------------------------|-------------------------------------------------|
Eb|--------------------------------------------------|-------------------------------------------------|
| | |
RthmEb|--------------------------------------------------|-------------------------------------------------|
Hb|--------------2-----------------------------------|-------------------------------------------------|
Gb|--------------------------------4-----------------|-(4)---------4-----------4-----------4-----------|
Db|--------4-----------4-----------4-----------------|-(4)---------4-----------4-----------4-----------|
Ab|--2-----------------------2-----2-----------------|-(2)---2--2--2-----2--2--2-----2--2--2-----2--2--|
Eb|--------------------------------------------------|-------------------------------------------------|
LeadEb|--17p14----14-19p14----14-17p14---19p14---17p14---19p14---|-17p14---19p14---17p14---19p14---17p14---19p14---17p14---19p14---|
Hb|--------17----------17---------17-------17-----17------17-|------17------17------17------17------17------17------17------17-|
Gb|--------------------------------------------------|-------------------------------------------------|
Db|--------------------------------------------------|-------------------------------------------------|
Ab|--------------------------------------------------|-------------------------------------------------|
Eb|--------------------------------------------------|-------------------------------------------------|
| | |
RthmEb|--------------------------------------------------|-------------------------------------------------|
Hb|--------------5-----------------------------------|-------------------------------------------------|
Gb|--------------------------------7-----------------|-(7)---------7-----------7-----------7-----------|
Db|--------7-----------7-----------7-----------------|-(7)---------7-----------7-----------7-----------|
Ab|--5-----------------------5-----5-----------------|-(5)---5--5--5-----5--5--5-----5--5--5-----5--5--|
Eb|--------------------------------------------------|-------------------------------------------------|
LeadEb|--15----14h15p14p12----------------------------------|-------------------------------------------------|
Hb|--------------------15bend17~~~~~~~~~~~~~~--15----|-------------------------------------------------|
Gb|--------------------------------------------------|-14~~~~~~~~~~~~~~~~~~~~~~~\\\\\------------|
Db|--------------------------------------------------|-------------------------- w/tremolo bar --------|
Ab|--------------------------------------------------|-------------------------------------------------|
Eb|--------------------------------------------------|-------------------------------------------------|
| | |
RthmEb|--------------------------------------------------|-------------------------------------------------|
Hb|--------------0-----------0-----------------------|-------------------------------------------------|
Gb|--------------------------------2-----------------|-(2)---------2-----------2-----------2-----------|
Db|--------2-----------2-----------2-----------------|-(2)---------2-----------2-----------2-----------|
Ab|--0-----------------------------0-----------------|-(0)---0--0--0-----0--0--0-----0--0--0-----0--0--|
Eb|--------------------------------------------------|-------------------------------------------------|
Gtr.1Eb|--------------------------|-------------------------|-------------------------|-------------------------|
Hb|--12h15p12h15p12h15p12h15p12h15p12h15p12h15p12h15p12h15p12h15p12h15p12h15p12h15p12h15p12h15p12---------|
Gb|--------------------------|-------------------------|-------------------------|-------------------------|
Db|--------------------------|-------------------------|-------------------------|-------------------------|
Ab|--------------------------|-------------------------|-------------------------|-------------------------|
Eb|--------------------------|-------------------------|-------------------------|-------------------------|
| | | | |
Gtr.2Eb|-- H5 --------------------|-------------------------|-------------------------|-------------------------|
Hb|--------------------------|-------------------------|-------------------------|-------------------------|
Gb|--------------------------|-------------------------|-7p6h7p6h7p6h7p6h7p6h7p6h7p6h7p6h7p6h7p6----------|
Db|--------------------------|-------------------------|-------------------------|-------------------------|
Ab|--------------------------|-------------------------|-------------------------|-------------------------|
Eb|--------------------------|-------------------------|-------------------------|-------------------------|
(4:37 - 5:23)
BRIDGE: (I guess there's also another voice)
VoiceEb|--------------------------------------------------------------------|
Hb|--------------------------------------------------------------------|
Gb|--------------------------------------------------------------------|
Db|--------------------------------------------------------------------|
Ab|--5-------5-----------4-------2-----5-------5-----------4-------2---|
Eb| Pom - nish', ty ved' pom - nish', ty byl -|
| | |
Bass Gb|----------------------------------|---------------------------------|
Db|----------------------------------|---------------------------------|
Ab|--5---5-5-5---5-5-5---5-5-5---5-5-|-5---5-5-5---5-5-5---5-5-5---5-5-|
Eb|----------------------------------|---------------------------------|
VoiceEb|--------------------------------------------------------------------|
Hb|--------------------------------------------------------------------|
Gb|--------------------------------------------------------------------|
Db|--------------------------------------------------------------------|
Ab|--4-------4---4-------4---5---------4-------------------------------|
Eb| gor - dym mud - rym vozh - dem. --------------------|
| | |
Bass Gb|----------------------------------|---------------------------------|
Db|----------------------------------|---------------------------------|
Ab|--4---4-4-4---4-4-4---4-4-4---4-4-|-4---4-4-4---4-4-4---4-4-4---0---|
Eb|----------------------------------|---------------------------------|
VoiceEb|--------------------------------------------------------------------|
Hb|--------------------------------------------------------------------|
Gb|--------------------------------------------------------------------|
Db|--------------------------------------------------------2-------4---|
Ab|--5-------5-----------4-------2-----5-------5-----------------------|
Eb| Pom - nish', ty ved' pom - nish', kak vosh-|
| | |
Bass Gb|----------------------------------|---------------------------------|
Db|----------------------------------|---------------------------------|
Ab|--5---5-5-5---5-5-5---5-5-5---5-5-|-5---5-5-5---5-5-5---5-5-5---5-5-|
Eb|----------------------------------|---------------------------------|
VoiceEb|--------------------------------------------------------------------|
Hb|--------------------------------------------------------------------|
Gb|--------------------------------------------------------------------|
Db|--------------------------------------------------------------------|
Ab|--4-------4--4-------4----5---------4----------------------4-----0--|
Eb| li solda - ty v tvoy dom. Ty vstre -|
| | |
Bass Gb|----------------------------------|---------------------------------|
Db|----------------------------------|---------------------------------|
Ab|--4---4-4-4---4-4-4---4-4-4---4-4-|-4---4-4-4---4-4-4---4-4-4---0---|
Eb|----------------------------------|---------------------------------|
VoiceEb|--------------------------------------------------------------------|
Hb|--------------------------------------------------------------------|
Gb|--------------------------------------------------------------------|
Db|-----------4--------------------------------4---4---4----2----------|
Ab|---2---2-------------------------------------------------------5----|
Eb| chal rassvet sre -di vyzhzhen - nyh -|
| | |
Gtr. Eb|----------------------------------|---------------------------------|
Hb|----------------------------------|---------------------------------|
Gb|----------------------------------|---------------------------------|
Db|----------4-----------2-----------|---------4-----------2-----------|
Ab|--2---------------2-----------5---|-2---------------2-----------5---|
Eb|----------------------------------|---------------------------------|
| | |
Bass Gb|----------------------------------|---------------------------------|
Db|----------------------------------|---------------------------------|
Ab|--2---2-2-2---2-2-2---2-2-2---2-2-|-2---2-2-2---2-2-2---2-2-2---2-2-|
Eb|----------------------------------|---------------------------------|
VoiceEb|--------------------------------------------------------------------|
Hb|--------------------------------------------------------------------|
Gb|--------------------------------------------------------------------|
Db|--------------------------------------------------------------------|
Ab|---4------5---4----------------------------------------------4--4---|
Eb| ska - a - al. Vremya -|
| | |
Gtr. Eb|----------------------------------|---------------------------------|
Hb|----------------------------------|---------------------------------|
Gb|----------------------------------|---------------------------------|
Db|----------------------------------|---------------------------------|
Ab|----------4-----------2-----------|---------4-----------2-----------|
Eb|--2---------------2-----------5---|-2---------------2-----------5---|
| | |
Bass Gb|----------------------------------|---------------------------------|
Db|----------------------------------|---------------------------------|
Ab|----------------------------------|---------------------------------|
Eb|--2---2-2-2---2-2-2---2-2-2---2-2-|-2---2-2-2---2-2-2---2-2-2---2-2-|
...
VoiceEb|--------------------------------------------------------------------|
Hb|--------------------------------------------------------------------|
Gb|----------------------------------------------------------------2---|
Db|--2-----2-----2---2-----2-----4-----5-----5-----------------5-------|
Ab|--------------------------------------------------------------------|
Eb| Hle - ba i zre - lisch na - ro - du che -rez |
| | |
Gtr. Eb|----------------------------------|---------------------------------|
Hb|----------------------------------|---------------------------------|
Gb|--9---------------------------11--|-12------------------------------|
Db|--9---------------------------11--|-12------------------------------|
Ab|--7---------------------------9---|-10------------------------------|
Eb|----------------------------------|---------------------------------|
VoiceEb|--------------------------------------------------------------------|
Hb|--------------------------------------------------------------------|
Gb|--4-----------------------------------------------------------------|
Db|--------------------------------------------------------------------|
Ab|--------------------------------------------------------------------|
Eb| kray. --------------------------------------|
| | |
Gtr. Eb|----------------------------------|---------------------------------|
Hb|----------------------------------|---------------------------------|
Gb|----------------------------------|---------------------------------|
Db|----------------------------------|---------------------------------|
Ab|--------------------------5-------|-------------------------5-------|
Eb|--5h7---5h7---5h7---5h7-------7---|-5h7---5h7---5h7---5h7-------7---|
VoiceEb|--------------------------------------------------------------------|
Hb|--------------------------------------------------------------------|
Gb|----------------------------------------------------------------2---|
Db|--2-----2-----2---2-----2-----4-----5-----5-----------------5-------|
Ab|--------------------------------------------------------------------|
Eb| Si - la pri -no - sit svo - bo - du, po -bezh |
| | |
Gtr. Eb|----------------------------------|---------------------------------|
Hb|----------------------------------|---------------------------------|
Gb|--9---------------------------7---|-5-------------------------------|
Db|--9---------------------------7---|-5-------------------------------|
Ab|--7---------------------------5---|-3-------------------------------|
Eb|----------------------------------|---------------------------------|
VoiceEb|--------------------------------------------------------------------|
Hb|--------------------------------------------------------------------|
Gb|--2-----------------------------------------------------------------|
Db|------------------------------------------------------------4-------|
Ab|--------------------------------------------------------------------|
Eb| day. Tvoy --|
| | |
Gtr. Eb|----------------------------------|---------------------------------|
Hb|----------------------------------|---------------------------------|
Gb|----------------------------------|---------------------------------|
Db|----------------------------------|---------------------------------|
Ab|--------------------------3-------|-4-------------------------------|
Eb|--3h5---3h5---3h5---3h5-------5---|-2-------------------------------|
(5:23 - 5:53) CHORUS
(5:54 - 6:24)
RIFF 3:
Gtr.Eb||-------------------------|-------------------------|-------------------------|-------------------------|
Hb||-------------------------|-------------------------|-------------------------|-------------------------|
Gb||-4-----------------------|-7-----------------------|-9-----------------------|-12----------------------|
Db||-4-----------------------|-7-----------------------|-9-----------------------|-12----------------------|
Ab||-2-----------------------|-5-----------------------|-7-----------------------|-10----------------------|
Eb||-------------------------|-------------------------|-------------------------|-------------------------|
Gtr.Eb|--------------------------|-------------------------|-------------------------|-------------------------||
Hb|--------------------------|-------------------------|-------------------------|-------------------------||
Gb|--4-----------------------|-7-----------------------|-9-----------------------|-------------------------||
Db|--4-----------------------|-7-----------------------|-9-----------------------|-5-----------7-----------||
Ab|--2-----------------------|-5-----------------------|-7-----------------------|-5-----------7-----------||
Eb|--------------------------|-------------------------|-------------------------|-3-----------5-----------||
(6:25 - 6:28) RIFF 2




Ваше мнение



Капча