Эти струны (умышленная ошибка, т.к.
Играются аккуст.гитара не позволяет)
Флажалетом обычно флажалетом обычно
-+------|---------12|-------7-|----------------------------12|------
-+------|-----12----|---------|-------------12---------------|------
-+------|-12--------|----8----|---------12------12-----------|------
-+----9-|-----------|---------|-----12--------------12-------|------
-+------|-----------|-9-------|------------------------12----|--16--
-+-0----|-----------|---------|-12---------------------------|------
Дергается
0 зажимается 2
Am и отпускается
|-------------0-|--0--------|-2-------|-------|----------------------
|----------1----|-----0-----|----3----|-------|----------0-----------
|-------2-------|--------0--|-------2-|-------|-------0--------------
|----2----------|-----------|-0-------|---020-|----2-----------------
|-0-------------|-----------|---------|-------|-3--------------------
|---------------|--0--------|---------|-------|----------------------

Флажалетом обычно флажалетом
-+----|---------12-|-------7-|----------------------------12-|------
-+----|-----12-----|---------|--------------12---------------|------
-+----|-12---------|----8----|----------12------12-----------|------
-+--9-|------------|---------|------12--------------12-------|------
-+----|------------|-9-------|-------------------------12----|--16--
-0----|------------|---------|--12---------------------------|------

Am
|-------------0-|---0---------2----------------------------------
|----------1----|------0---------3-------------------0-----------
|-------2-------|---------0---------2-------------0--------------
|----2----------|-------------0--------020-----2-----------------
|-0-------------|---------------------------3--------------------
|---------------|---0--------------------------------------------
A на 3 ладу F на 8 ладу F на 3 ладу
-|-----------|---0----|---------------8|---3--------|--2------------
-|-4--------4|--------|------------8---|------------|-----3---------
-|----4------|--------|---------9------|-------3----|--------2------
-|-------4---|--------|-----10---------|----------4-|--0------------
-|-2---------|--------|----------------|------------|---------------
-|-----------|---0----|--8-------------|---3--------|---------------
-+--------------------------------------------|
-+-------------0------------------------------|
-+-----------0--------------------------------|
-+-020-----2----------------------------------|
-+------3-------------------------------------|
-+-------------------0------------------------|




Ваше мнение



Капча