King of road (1995 - Night is shorter than day)
Tempo: moderately fast (123 bpm)
INTRO: (0:01 - 0:11)
RIFF 1 (play 2 times):
Gtr.E||----- 11/8 measure --------------------------|
H||---------------------------------------------|
G||---------------------------------------------|
D||---------------------------------------------|
A||-5p3-5-5-5p3-5p3-5-5-5p3-5p3-5-5-5---3---6---|
E||---------------------------------------------|
Gtr.E|------ 11/8 measure --------------------------||
H|----------------------------------------------||
G|----------------------------------------------||
D|----------------------------------------------||
A|--5p3-5-5-5p3-5p3-5-5-5p3-5p3-5-5-5---3-------||
E|------------------------------------------6---||
(0:11 - 0:22)
RIFF 2:
Gtr.E|------- 11/8 measure ------------------------|
H|---------------------------------------------|
G|---------------------------------------------|
D|---0h2-2-2p0---0h2-2-2p0---0h2-2-2---0---3---|
A|---0h2-2-2p0---0h2-2-2p0---0h2-2-2---0---3---|
E|-0-----------0-----------0-------------------|
Gtr.E|------- 11/8 measure ------------------------|
H|---------------------------------------------|
G|---------------------------------------------|
D|---0h2-2-2p0---0h2-2-2p0---0h2-2-2---0-------|
A|---0h2-2-2p0---0h2-2-2p0---0h2-2-2---0---3---|
E|-0-----------0-----------0---------------3---|
Gtr.E|------- 11/8 measure ------------------------|
H|---------------------------------------------|
G|---------------------------------------------|
D|---0h2-2-2p0---0h2-2-2p0---0h2-2-2---0---3---|
A|---0h2-2-2p0---0h2-2-2p0---0h2-2-2---0---3---|
E|-0-----------0-----------0-------------------|
Gtr.E|------- 10/8 measure --------------------|
H|-----------------------------------------|
G|-----------------------------------------|
D|---0h2-2-2p0---0h2-2-2p0---0h2---2-2-2---|
A|---0h2-2-2p0---0h2-2-2p0---0h2---------5-|
E|-0-----------0-----------0-----0---------|
Measure: normal (4/4) from now on.
(0:22 - 0:38)
VERSE 1:
Voice
E|--------------------------------------------------------------------|
H|--------------------------------------------------------------------|
G|--------------------------------------------------------------------|
D|----------------------------------------------------------5-7-------|
A|---9-9--9---9---9-----7---5-------9-9-9----9-9---9-9-9--------------|
E|- Ya o ney mechtal vsyu zhiznґ, nakonetz moi zhelanya sbylisґ: ---|
| | |
Gtr. E|----------------------------------|---------------------------------|
H|----------------------------------|---------------------------------|
G|----------------------------------|---------------------------------|
D|----------------------------------|---------------------------------|
A|(5)-5-5-5-5-5-5-5-5-5-5-5-5-5-5-5-|-5-5-5-5-5-5-5-5-5-5-5-5-5-5-5-5-|
E|----------------------------------|---------------------------------|

VoiceE|--------------------------------------------------------------------|
H|--------------------------------------------------------------------|
G|--------------------------------------------------------------------|
D|--5---------------------------------5-------------------------------|
A|------7-7-------------------------------7-7-------------------------|
E| Vot ona! Vot ona! ----------------------|
| | |
Gtr. E|----------------------------------|---------------------------------|
H|----------------------------------|---------------------------------|
G|----------------------------------|---------------------------------|
D|--5---2-2-2-2-2-2-2-2-2-2-5h7p54-|-5---2-2-2-2-2-2-2-2-2-2-2-2-2---|
A|----------------------------------|-------------------------------5-|
E|----------------------------------|---------------------------------|

VoiceE|--------------------------------------------------------------------|
H|--------------------------------------------------------------------|
G|--------------------------------------------------------------------|
D|------------------------------------------------------------5---7---|
A|----9---9--9--9--9-7-------5-----9--9-9---9---9--9---9-9------------|
E| Vsya blestit i manit vzglyad. Na takoy ne greh otpravitґsya v ad -|
| | |
Gtr. E|----------------------------------|---------------------------------|
H|----------------------------------|---------------------------------|
G|----------------------------------|---------------------------------|
D|----------------------------------|---------------------------------|
A|(5)-5-5-5-5-5-5-5-5-5-5-5-5-5-5-5-|-5-5-5-5-5-5-5-5-5-5-5-5-5-5-5-5-|
E|----------------------------------|---------------------------------|

VoiceE|--------------------------------------------------------------------|
H|--------------------------------------------------------------------|
G|--------------------------------------------------------------------|
D|--5---------------------------------5-------------------------------|
A|------7-7-------------------------------7-7-------------------------|
E| Vot ona! Vot ona! Chem |
| | |
Gtr. E|----------------------------------|---------------------------------|
H|----------------------------------|---------------------------------|
G|----------------------------------|---------------------------------|
D|--5---2-2-2-2-2-2-2-2-2-2-5h7p54-|-5---2-2-2-2-2-2-2-2-2-2-2-2-2-2-|
A|----------------------------------|---------------------------------|
E|----------------------------------|---------------------------------|
(0:38 - 0:54)
BRIDGE:
dalґshe, tem bolґshe, chem bolґshe tem silґney. Dru-
Gtr. E|---------------------------------|---------------------------------|
H|---------------------------------|---------------------------------|
G|---------------------------------|---------------------------------|
D|-----------------3---------------|-2---------------5-----3-----2---|
A|-1---1-1---1-1---1---1-1---1-1---|-1---1-1---1-1-------------------|
E|---------------------------------|---------------------------------|
zey dushit zavistґ, plevatґ mne na druzey. I dnem i
Gtr. E|---------------------------------|---------------------------------|
H|---------------------------------|---------------------------------|
G|---------------------------------|---------------------------------|
D|-----------------3---------------|-2---------------5-----3-----2---|
A|-3---3-3---3-3---3---3-3---3-3---|-3---3-3---3-3-------------------|
E|---------------------------------|---------------------------------|
nochyu ya budu mchatґsya po chernoy polose. Sli-
Gtr. E|---------------------------------|---------------------------------|
H|---------------------------------|---------------------------------|
G|---------------------------------|---------------------------------|
D|-----------------3---------------|-2---------------5-----3-----2---|
A|-1---1-1---1-1---1---1-1---1-1---|-1---1-1---1-1-------------------|
E|---------------------------------|---------------------------------|
lisґ vo - yedino dva prizraka shosse.
Gtr. E|---------------------------------|---------------------------------|
H|---------------------------------|---------------------------------|
G|---------------------------------|---------------------------------|
D|-----------------3---------------|-2---------------5-------7-------|
A|-3---3-3---3-3---3---3-3---3-3---|-3---3-3---3-3---3-------5-------|
E|---------------------------------|---------------------------------|
(0:54 - 1:09)
CHORUS:
VoiceE|--------------------------------------------------------------------|
H|--------------------------------------------------------------------|
G|--------------------------------------------------------------------|
D|--9-----------9------------9-------10-----------10---------10-------|
A|---------7------------7------7--------------7-----------7-----7-----|
E|-Ya ko - rolґ do - rogi, ya ko - rolґ ot boga. V |
| | |
Gtr. E|----------------------------------|---------------------------------|
H|----------------------------------|---------------------------------|
G|----------------------------------|---------------------------------|
D|--9-----------9-----------9-------|-10----------10----------10------|
A|--7-----------7-----------7-------|-7-----------7-----------7-------|
E|------0---0-------0---0-------0---|-----0---0-------0---0-------0---|

VoiceE|--------------------------------------------------------------------|
H|--------------------------------------------------------------------|
G|--------------------------------------------------------------------|
D|--7------5----4----------------7----7--------5-4----5-------7-------|
A|------------------5-------------------------------------------------|
E|- ad i - li ray --- sa - ma vybi - ra - ay ----|
| | |
Gtr. E|----------------------------------|---------------------------------|
H|----------------------------------|---------------------------------|
G|----------------------------------|---------------------------------|
D|--7---------------7---------------|-4---------------5-------7-------|
A|--5-----------0---5---------------|-2---------------3-------5-------|
E|----------------------------------|---------------------------------|

VoiceE|--------------------------------------------------------------------|
H|--------------------------------------------------------------------|
G|--------------------------------------------------------------------|
D|--9-----------9-----------9--------10----------10----------10-------|
A|---------7------------7-------7------------7------------7------7----|
E|-Zhitґ kak vse mne skuchno, mne i smertґ igrushka ---|
| | |
Gtr. E|----------------------------------|---------------------------------|
H|----------------------------------|---------------------------------|
G|----------------------------------|---------------------------------|
D|--9-----------9-----------9-------|-10----------10----------10------|
A|--7-----------7-----------7-------|-7-----------7-----------7-------|
E|------0---0-------0---0-------0---|-----0---0-------0---0-------0---|

VoiceE|-------------------------------------------------------------------|
H|-------------------------------------------------------------------|
G|-------------------------------------------------------------------|
D|--7-------5-----4--------------7----7-------5---4----5-------------|
A|------------------5------------------------------------------------|
E|Sko - rostґ hrani, u - da - chu lo - vi! ---------|
| | |
Gtr. E|----------------------------------|--------------------------------|
H|----------------------------------|--------------------------------|
G|----------------------------------|--------------------------------|
D|--7---------------7---------------|-4---------------5-------2-2-2--|




Ваше мнение



Капча