||--------------------------------------------------------------
||--------------------------------------------------------------
||--------------------------------------------------------------
||--------------------------------------------------------------
||--------------5-7--7-7-7p5-----------------------5---8---7----
||-5--5-5-8h7h5--------------8p7p5----5--5-5-8h7h5--------------

||--------------------------------------------------------------
||--------------------------------------------------------------
||--------------------------------------------------------------
||--------------------------------------------------------------
||--------------5-7--7-7-7p5-----------------------5------------
||-5--5-5-8h7h5--------------8p7p5----5--5-5-8h7h5-----7---0----

Em
Грянул хор, и качнулся храм
D
Смерть пришла за мной в пять часов утра
C D
Боль рванула грудь, сразу стал свободен я
Лица шлюх из миланских лож
Лица старых дев сводит злобы дрожь
Им бы плоть мою растерзать средь бела дня

A
Я был им как в горле кость
C
Я видел их всех насквозь
D
Я злостью платил за злость

Припев:
Em D
Эй! Я для них злодей
C
Знающий секрет
Am
Hизменных страстей
G Em
Hищих и царей
Я был скрипачом
Мой талант - мой грех
Жизнью и смычком
Я играл с огнем

Hет клейма на душе моей
Кроме господа я не знал царей
Hо на скрипке мне выжег мастер тайный знак
И змеей пущен черный слух
Что смычком моим правит адский дух
А мой лучший друг - Гений Тьмы, сам Сатана!
Он был мне как в горле кость
Он в сердце будил лишь злость
Он стоил кровавых слез

Припев.

Эй, скрипач
Ты горяч
Как всегда строптив
Ты не прав
Ты как раб
Мой играл мотив
Ты не хочешь знать, что гений - это я!
Ты же мой футляр, ты - платье для меня...
... скрипач!
Пой и плач
И хвались игрой
Все равно
Мертв ты давно
Что нам род людской?
Им бы пить и жрать в три горла день и ночь
Будь ты трижды гений, им нельзя помочь

Hо спустись на дно
Пряча в струнах смех
Сделай звук вином
Сокруши мой трон
"Адским" скрипачом
Станешь без помех
Мы тебя поймем
Там играй с огнем!

Tabs&chords by: Igor Korolyov (2:5017/19 AKA [email protected])




Ваше мнение



Капча